Korn - Lets Do This Now Chords & Tabs

 

Lets Do This Now Chords & Tabs

Korn Chords & Tabs

Version: 1 Type: Tab 0 ratings
1 star 2 stars 3 stars 4 stars 5 stars
comments

Lets Do This Now Tab

#----------------------------------PLEASE NOTE---------------------------------#
#This file is the author's own work and represents their interpretation of the #
#song. You may only use this file for private study, scholarship, or research. #
#------------------------------------------------------------------------------#

Lets Do This Now
Artist: Korn
I just submitted Right Now so heres Lets Do This Now, the bagpipe 
song. The intro is all bagpipes like Shoots and Ladders and then the
song descends intro a fast heavy groove. The riffs are awesome and the
lyrics are gory, this song will definately be a favorite.
Like Right Now i don't know if these are all right, the song has a 
lead part over the Pre-Bridge and the Chorus that i don't know. So
this probably isn't perfectly accurate but i feel like the riffs I do
have are pretty close to perfect if there are any mistakes they are 
minor. So as I said with the last tab this is just for people to build
off of. 
Tuning: (7-string guitar): ADGCFAD
Intro(after bagpipes)/Chorus
the higher notes might be power chorus but i personally think it 
sounds better and is easier with just single notes.
Low 
A-9p8-0-0--0-0-9p8-0-0-8p7-0-0-9p8-0-0--0-0-9p8-0-0-8p7-0-0-(repeat)
[ Tab from: http://www.guitartabs.cc/tabs/k/korn/lets_do_this_now_tab.html ]
Actually I just remembered I DID figure out the lead part for the 
chorus. I'm not sure but it sounds alright here it is:
F-12//-----13//--15//----16//--12//-----13//--15//----16//-
C--x--------x-----x-------x-----x--------x-----x-------x---
G-10//-----11//--13//----14//--10//-----11//--13//----14//-

You can slide instead of pull-off but i find pull-offs more fun

Verse: This part I'm not sure about but I'm pretty sure:

F-------6-------6---------6-------6---7-
C-------5-------5---------5-------5---6-
G-------4-------4---------4-------4---5-
D---------------------------------------
A-4-4-4---4-4-4-----4-4-4---4-4-4---4---(repeat)

PreChorus: Again I'm not sure but the notes sound right

F-------5-------5---------5-------5---7-
C-------4-------4---------4-------4---6-
G-------3-------3---------3-------3---5-
D---------------------------------------
A-3-3-3---3-3-3-----3-3-3---3-3-3---0---

Pre-Bridge: theres a higher lead part I still haven't figure out I
know some of it sounds like open notes on the higher strings but I'm
not sure. Heres the main part though:
Low
D-1-----4-------3-----2-

And heres the Bridge:

G-3-----6-------5/65-4-
D-1-----4-------3/43-2-

Heres the part right before the end:
Slight Palm muting-
Low
A-9p8-0-0-----9p8-0-0-----9p8-0-0-----9p8-0-0-----



When someone pisses you off listen to this song or play it better yet.
I'll be right back with the verse and chorus to Deep Inside...
Comments