Korn - Layla Chords & Tabs

 

Layla Chords & Tabs

Korn Chords & Tabs

Version: 2 Type: Tab 0 ratings
1 star 2 stars 3 stars 4 stars 5 stars
comments

Layla Tab

   
by LPD & spike666
this is one of our favorite songs.
we garantee that this is perfect.
please rate this song.
both gtrs.are 7-string gtrs. tuned 1 whole step down.
7=A 3=F      use gauges 58,48,38,28,18,14,11
6=D 2=A      use a good bit of distortion in the whole song.
5=G 1=D         LAYLA
4=C
  gtr.2  gtr.1  gtr2 gtr.1  gtr.2 gtr.1
1 ---------------------------------------gtr.2-----gtr.1-------|
2 ---------4-----------8------------4---------------8----------|
3 ----------6^----------10^----------6^--------------10^-------|
4 -------------------------------------------------------------|
5 --------------2--2-2------------------2-2-2-2-2-2------------|
6 -2-2-2-2------2--2-2------2-2-2-2-----2-2-2-2-2-2------------|
7 -0-0-0-0------0--0-0------0-0-0-0-----0-0-0-0-0-0------------|
   s.p.m.       s.p.m.      s.p.m.      s.p.m.
  gtr.1  riff 1  riff 2    riff 1        riff 2
   x4             x1         x4           x1
  --------------|--------|--------------|-----------------|
  --------------|--------|--------------|-----------------|
  --------------|--------|--------------|-----------------|
  --------------|--------|--------------|-----------------|
  -2222-2222-222|-2-5-4-3|-2222-2222-222|-4-3-------------|
  -2222-2222-222|-2-5-4-3|-2222-2222-222|-4-3-------------|
  -0000-0000-000|-0-3-2-1|-0000-0000-000|-2-1-------------|
                  s.p.m.
  gtr.2 riff1    riff 2   riff 1          riff 2
   x4            x1        x4             x1
  --------------|--------|--------------|--------------------|
  --------------|--------|--------------|--------------------|
  --------------|--------|--------------|--------------------|
  --------------|--------|--------------|--------------------|
  -0000-0000-000|--------|-0000-0000-000|--------------------|
  -0000-0000-000|--------|-0000-0000-000|--------------------|
  -0000-0000-000|-0-3-2-1|-0000-0000-000|-2-1----------------|
                  s.p.m.
                 [bass part]
  grt.1 riff1     riff 1         riff2  riff1          riff1         riff2
   x2            x2              x1     x2             x2            x1
  --------------|--------------|------|--------------|-------------|------|
  --------------|--------------|------|--------------|-------------|------|
  --------------|--------------|------|--------------|-------------|------|
  --------------|--------------|------|--------------|-------------|------|
  -2222-2222-222|--------------|-5-4-3|-2222-2222-222|-------------|4-3---|
  -2222-2222-222|-2222-2222-222|-5-4-3|-2222-2222-222|2222-2222-222|4-3---|
  -0000-0000-000|-0000-0000-000|-3-2-1|-0000-0000-000|0000-0000-000|2-1---|
                                s.p.m.
  gtr.2 riff1     riff1        riff2   riff1          riff1         riff2
    x2            x2             x1      x2             x2           x1
  --------------|--------------|------|--------------|-------------|------|
  --------------|--------------|------|--------------|-------------|------|
  --------------|--------------|------|--------------|-------------|------|
  --------------|--------------|------|--------------|-------------|------|
  -0000-0000-000|--------------|------|-0000-0000-000|-------------|------|
  -0000-0000-000|-0000-0000-000|------|-0000-0000-000|0000-0000-000|------|
  -0000-0000-000|-0000-0000-000|-3-2-1|-0000-0000-000|0000-0000-000|2-1---|
             [bass part]        s.p.m.
        repeat the part above
  both gtrs. riff1     riff2
    x4         x3        x8        x7
  -------------------|----------------------|
  -------------------|----------------------|
  -------------------|----------------------|
  -------------------|----------------------|
  -4/3-3-4-3--2-3-4-3|-4/3-3-4-3--2-3-4-3---|
  -4/3-3-4-3--2-3-4-3|-4/3-3-4-3--2-3-4-3---|
  -2/1-1-2-1--0-1-2-1|-2/1-1-2-1--0-1-2-1---|
       -      -            -      -
               (-slight p.m.-)
                                [bass part]
                            repeat the part before the one above
                            and then repeat riff2 on the one above.
  grt.1 riff2     riff2
    x4            x8
  --------------|------------------------|
  --------------|------------------------|
  --------------|------------------------|
  ------9------4|------9-4-3-------------|
  ------9------4|------9-4-3-------------|
  ------7------2|------7-2-1-------------|
  -00-0---00-0--|-00-0-------------------|
                     -
  gtr.2 riff1
   x4              x8
  ------0------0|------0-0-0--------------|
  ------0------0|------0-0-0--------------|
  ------0------0|------0-0-0--------------|
  ------9------4|------9-4-3--------------|
  ------9------4|------9-4-3--------------|
  ------7------2|------7-2-1--------------|
  -00-0---00-0--|-00-0--------------------|
                     -
              now repeat the very first part,
              and then the part after it.
 both gtrs.     both gtrs.
--------------|-------------------------|
--------------|-------------------------|
--------------|-------------------------|
--------------|-------------------------|
-2222-2222-222|-------------------------|
-0000-0000-000|-2222-2222-222-----------|
--------------|-0000-0000-000-----------|
                 (slight p.m.)

            there you go.
        oh, and be sure to follow it step by step,thanks.
[ Tab from: http://www.guitartabs.cc/tabs/k/korn/layla_tab_ver_2.html ]
Comments