Korn - Layla Chords & Tabs

 

Layla Chords & Tabs

Korn Chords & Tabs

Version: 1 Type: Tab 0 ratings
1 star 2 stars 3 stars 4 stars 5 stars
comments

Layla Tab

Title: Layla
from:  Korn
tabbed by: Jupp Hoffmann

I have tabbed this from the demo studio version
of Layla. It's a hell to tab anything out by this
quality. But I think this is very close to the
song. If you have any corrections or something
E-mail to: jupphoffmann@gmx.net
-------------------------------------------------



Intro Riff 2x
    d|-------------------------4^-----
    a|----------5^--------------------
    F|--------------------------------
    C|--------------------------------
    G|--------------------------------
    D|-2-2-2-2-------2-2-2-22---------
    A|-0-0-0-0-------0-0-0-00---------
PM     -------       --------


heavy Riff
    d|----------------------------------
    a|----------------------------------
    F|----------------------------------
    C|----------------------------------
    G|-2-2-2-2-------2-2-2-2---2-2-2-2--
    D|-2-2-2-2-------2-2-2-2---2-2-2-2--
    A|-0-0-0-0-------0-0-0-0---0-0-0-0--

[ Tab from: http://www.guitartabs.cc/tabs/k/korn/layla_tab.html ]
Fill
    d|----------------------------------
    a|----------------------------------
    F|----------------------------------
    C|----------------------------------
    G|-2-2-2-2-------2-2-2-2---2-5-4-3--
    D|-2-2-2-2-------2-2-2-2---2-5-4-3--
    A|-0-0-0-0-------0-0-0-0---0-3-2-1--


"this pain and rage and fear I feel" Part
    d|----------------------------------
    a|----------------------------------
    F|----------------------------------
    C|----------------------------------
    G|-3/2-2-2---3/2-2-2---2-2-3/2-2----
    D|-3/2-2-2---3/2-2-2---2-2-3/2-2----
    A|-1/0-0-0---1/0-0-0---0-0-1/0-0----
    (or some variations of this 2 Riffs...dont rembember exactly)


"inside I'm afraid..." Part
    d|----------------------------------
    a|----------------------------------
    F|----------------------------------
    C|---------4-----------------4------
    G|-2-2-22--2---------2-2-22--2------
    D|-2-2-22-(0)--------2-2-22-(0)-----
    A|-0-0-00------------0-0-00---------
PM         --                --

"I have fun..." Part
    d|----------------------------------
    a|----------------------------------
    F|----------------------------------
    C|---------4---4-3-----------4---4-3
    G|-2-2-22--2---4-3---2-2-22--2---4-3
    D|-2-2-22-(0)--2-1---2-2-22-(0)--2-1
    A|-0-0-00------------0-0-00---------
PM         --                --

then Intro
and the heavy Riff (probely a octave higher)
Comments