Korn - Korn Chords & Tabs

 

Korn Chords & Tabs

Korn Chords & Tabs

Version: 3 Type: Bass Tab 0 ratings
1 star 2 stars 3 stars 4 stars 5 stars
comments

Korn Bass Tab

   
Band- Korn
Album- Korn

1.Blind
2.Ball Tongue
3.Need To
4.Clown
5.Divine
6.Faget
7.Shoots And Ladders
8.Predictable
9.Fake
10.Lies
11.Helmet In The Bush
12.Daddy

1.BLIND

dropped "d" tuned

Intro~~
G|---------------------------------|
D|---------------------------------|
A|----12---------------------------|
D|--0----13-10-0-----0----0--------|

G|---------------------------------|
D|---------------------------------|
A|---------------------------------|
D|--0-2-0-3-0-2-0-3-5-5-5-5--------|

G|---------------------------------|
D|---------------------------------|
A|---------------------------------|
D|--0-0-0-1-1-1-0-0-0-1-1-1--------|
prechorus~
G|------------------|
D|------------------|
A|------------------|
D|--0-1-0-0-1-5-0---|

outro~
G|-------------------------|
D|-------------------------|
A|--13--------12-----------|
D|----13-12------12--13----|

2.BALL TONGUE

(5-string bass tuned down 1 step a,d,g,c,f)
f------------------------------------------------------|
c------------------------------------------------------|
g------------------------------------------------------| X4
d-------5h4------------8-7-----------------------------|
a-6h5-0-----0-6h5--0-0------0-0------------------------|

f------------------------------------------------------|
c------------------------------------------------------|
g------------------------------------------------------|
d-------5h4----------8--------5------------------------|
a-6h5-0-----0-6h5--0----0-6-5--------------------------|

f------------------------------------------------------|
c------------------------------------------------------|
g------------------------------------------------------|
d-------5h4----------8--------5------------------------|
a-6h5-0-----0-6h5--0----0-6-5--------------------------|

g---------|
c---------|
g---------| X7
d---------|
a-5--5-5--|

f----------------------------------------------------|
c----------------------------------------------------|
g----------------------------------------------------|
d-------5h4----------8-------5-----------------------|
a-6h5-0-----0-6h5--0---0-6-5-------------------------|

f------------------------------|
c------------------------------|
g------------------------------| X3
d------------------------------|
a-0-0--X-X-X-0--0--X--0-0-1-1--|

f-----------------|
c-----------------|
g-----------------|
d-----------------|
a-0-0-X-X-X-X-X-X-|

f------------------------------|
c------------------------------|
g------------------------------| X8
d------------------------------|
a-0-0--X-X-X-0--0--X--0-0-1-1--|

f----------------------------|
c----------------------------|
g----------------------------|  X4
d----------------------------|
a-0--0--0-0--0--0-0-0-1-1----|

f----------------------------|
c----------------------------|
g----------------------------|
d----------------------------|
a-X-X-0-0-X-X--0--X-0-0-1-1--|

f----------------------------|
c----------------------------|
g----------------------------|
d----------------------------|
a-X-X-0-0-X-X--0--X-0-1------|

f------------------------------|
c------------------------------|
g------------------------------| X8
d------------------------------|
a-0-0--X-X-X-0--0--X--0-0-1-1--|

f----------------------------|
c----------------------------|
g----------------------------|  X8
d----------------------------|
a-0--0--0-0--0--0-0-0-1-1----|

g---------|
c---------|
g---------| X7
d---------|
a-5--5-5--|

f-----------------------------------|
c-----------------------------------|
g-----------------------------------|
d-------5h4----------8------------5-|
a-6h5-0-----0-6h5--0-----7--6--5----|

f-------|
c-------|
g-14----|
d----13-|
a-------|

f---------------------|
c---------------------|
g--------------14-----| X7
d-----------------13--|
a-12--12-12-12--------|

3.NEED TO

Intro I: Very fast
F|-------------------|
C|-------------------|
G|-------------------|
D|-------------------|
A|-11111101111010----|

Intro II           1x                    3x
F|--(5)-(5)-(5)----------| F|------(5)-(5)---------|
C|-----------------------| C|----------------------| This (5)'S are played with the
G|-----------------------| G|----------------------| slapping style.
D|-----------------------| D|----------------------|
A|--------------3/5------| A|-0-0---------3/5------|

Intro III          2x                    2x
F|------------------| F|------------------|
C|------------------| C|------------------|
G|------------------| G|------------------|
D|------------------| D|------------------|
A|-1-1-0--1-0-0-3/5-| A|-1--0--1--0-0-3/5-|

Verse: Very fast
F|-------------------|
C|-------------------|
G|-------------------|
D|-------------------|
A|-1111110111111010--|

Chorus
F|-----------------------------------------|
C|-----------------------------------------|
G|-----------------------------------------|Play these notes with the
D|-----------------------------------------|rythm of the drums
a|-5-5-5-55-0-0-1111-7-7-7-77-6-6-66-6-666-|

Last time
F|-------------------------------|
C|-------------------------------|
G|-------------------------------|
D|-------------------------------|
A|-5-5-5-55-0-0-1111-7-7-7-77-6~-|


Bridge
F|-----------------------------|
C|-----------------------------|
G|-----------------------------|
d|-0-000-0-0000-0-0000-0-3-2-1-|
A|-----------------------------|


Solo: Very fast
F|-------------------|
C|-------------------|
G|-------------------|
D|-------------------|
A|-11111101111010----|

Outro:                    Last Time
F|------------------| F|-----------------|
C|------------------| C|-----------------|
G|------------------| G|-----------------|Play the 0s with the drums
D|------------------| D|-----------------|
A|-1-1-0--1-0-0-X---| A|-1--0--1--0-0000-|

4.CLOWN

Intro
rest for 45 seconds then
F-x4-slapped|-------------x2-not-slapped-------|
C-----------|-----------------|----------------|
G--3-3------|-----------------|----------------|
D-----------|-----------------|----------------|
A-1-1--0----|-3h4-3-2h3-2-3h4-|-3-2h3-2-3h4-2--|
                    not slapped
F-----------------x7----------------|----------------|
C-----------------|-----------------|----------------|
G-----------------|-----------------|----------------|
D-----------------|-----------------|----------------|
A-3h4-3-2h3-2-3h4-|-3-2h3-2-3h4-2-2-|-3-2h3-2-3h4-2--|

Verse x 2
F-----------x3-not-slapped---------|-------------not-slapped----------|
C-----------------|----------------|-----------------|----------------|
G-----------------|----------------|-----------------|----------------|
D-----------------|----------------|-----------------|--------3h4-3---|
A-3h4-3-2h3-2-3h4-|-3-2h3-2-3h4-2--|-3h4-3-2h3-2-3h4-|-3-2h3-2--------|

Chorus x 2
F---slapped-------x7--not-slapped----|-x4-slapped|
C------------------|-----------------|-----------|
G------------------|-----------------|--3-3------|
D---2--------------|-----------------|-----------|
A-0----0---0----0--|-4-3-3-3-2-2-2-1-|-1-1--0----|

Fill
Fnotslapped| rest
C----------| for
G----------| 2 1/2
D----------| measures
A-0-0-0----|

Interlude
F---x6-slapped----|------slapped------|
C-----------------|-------------------|
G-----------------|-------------------|
D-----------------|-------------------|
A-0----0-0--------|-0---0-0-1----2----|

Bridge
F-----------x4-slapped----------------|------------not-slapped-----------|
C-----------------|-------------------|-----------------|----------------|
G-----------------|-------------------|-----------------|----------------|
D-----------------|-------------------|-----------------|----------------|
A-0----0-0--------|-0---0-0-1----2----|-3h4-3-2h3-2-3h4-|-3-2h3-2-3h4-2--|

F----------x2-not-slapped-----------|-----------x2-not-slapped---------|
C-----------------|-----------------|-----------------|----------------|
G-----------------|-----------------|-----------------|----------------|
D-----------------|-----------------|-----------------|----------------|
A-3h4-3-2h3-2-3h4-|-3-2h3-2-3h4-2-2-|-3h4-3-2h3-2-3h4-|-3-2h3-2-3h4-2--|

F---------x2-not-slapped------------|
C-----------------|-----------------|
G-----------------|-----------------|
D-----------------|-----------------|
a-3h4-3-2h3-2-3h4-|-3-2h3-2-3h4-2-2-|

Fill
F---------slapped------------|
C----------------------------|
G----------------------------|
D----------------------------|
A-0--------0--------0--------|

2nd Chorus
F---slapped--|---not-slapped---|
C------------|-----------------|
G------------|-----------------|
D------------|-----------------|
A-0------000-|-4-3-3-3-2-2-2-1-|

F---slapped-------x7--not-slapped----|
C------------------|-----------------|
G------------------|-----------------|
D---2--------------|-----------------|
A-0----0---0----0--|-4-3-3-3-2-2-2-1-|

Outro x 16
F--------------|
C--------------|
G--3-3---------|
D--------------|
A-1-1--0-------|

5.DIVINE

Intro
F|----------------------------|
C|----(4)-(4)--(4)-(4)---(4)--|
G|----------------------------| x3
D|----------------------------|
A|-0-0--------0--------0------|

F|----------------------------|
C|----(4)-(4)--(4)-(4)---(5)--|
G|----------------------------| x1
D|----------------------------|
A|-0-0--------0--------0------|

F|----------------------------|
C|----(4)-(4)--(4)-(4)---(4)--|
G|----------------------------| x3
D|----------------------------|
A|-0-0--------0--------0------|

F|-------------------|
C|----(4)-(4)--(4)---|
G|-------------------| x1
D|-----------------5-|
A|-0-0--------0------|

Verse
F|-------------------|
C|-------------------|
G|-------------------|x3
D|-------------------|
A|-3-2-1--2-1--3-2-1-|

F|----------------------|
C|--------------------4-|
G|----------------------|x1
D|----------------------|
A|-3-2-1--2-1--3-2-1----|

Chorus
F|----------------------------|
C|----(4)-(4)--(4)-(4)---(4)--|
G|----------------------------| x3
D|----------------------------|
A|-0-0--------0--------0------|

F|----------------------------|
C|----(4)-(4)--(4)-(4)---(5)--|
G|----------------------------| x1
D|----------------------------|
A|-0-0--------0--------0------|

F|----------------------------|
C|----(4)-(4)--(4)-(4)---(4)--|
G|----------------------------| x4
D|----------------------------|
A|-0-0--------0--------0------|

Bridge I
F|------------------|
C|------------------|
G|------------------| Play this many times
D|-77-77-77-77-8-8--|
A|------------------|
[ Tab from: http://www.guitartabs.cc/tabs/k/korn/korn_btab_ver_3.html ]
Bridge II
F|------------------|
C|------------------|
G|------------------| x7
D|------------------|
A|-00-00-00-00-1-1--|


The last time
F|---------------------------|
C|--------------------4~~~---|
G|---------------------------| x1 ~~Let ring
D|---------------------------|
A|-00-00-00-055434432--------|

Bridge III
F|----------------------------|
C|----(4)-(4)--(4)-(4)---(4)--|
G|----------------------------| x1
D|----------------------------|
A|-0-0--------0--------0------|

Repeat chorus

Outro
F|----(4)-(4)--(4)-(4)---(4)--|
C|----------------------------|
G|----------------------------| x3
D|----------------------------|
A|-0-0--------0--------0------|

F|----(4)-(4)--(4)-(4)---(5)--|
C|----------------------------|
G|----------------------------| x1
D|----------------------------|
A|-0-0--------0--------0------|

6.FAGET

Intro: Im correcting this riff, I saw fieldy playin it live this way.
F|-------------------------------------------|
C|-------------------------------------------|
G|-------------------------------------------|Those ARE 12s, NOT 1s and 2s
D|------------------------------6-8-6-5-6----|
A|--0-000-00-00012121212-000-00-----------6--|

Verse
F|--------------------|
C|--------------------|
G|--------------------|
D|--2-222-22-2223333--|
A|--------------------|

Chorus: Same as Intro

After 2nd and 3rd Chorus
F|--------------------|
C|--------------------|
G|--------------------|
D|--------------------|
A|--2-222-22-2223333--|

Lil Bridge I
F|-------|
C|-------|
G|-------| x1 Play this only once and JUST Where I'll indicate
D|-------|    "You'll suck my d# and (fu%%ing) like it......."
A|--5~~~-|                           ||HERE||, you play this when jon sings fu%%ing

Bridge I
F|-------------------|
C|-------------------|
G|-------------------| x8  Play this after
D|-------7-----8--8--|     "You'll suck my......."
A|--0000----000-00---|

Bridge II
F|----------------|
C|----------------|
G|----------------| I think you play this 12 times
D|----------------| (play this after bridge I)
A|--6-7-5--2-3-4--|

Lil Bridge II
F|-----|
C|-----|
G|-----| x1 Play this when Jon start singing
D|-----|    "All my life...."
A|--5--|

All my life bridge: Same as Intro

Outro: Same as the riff played after 2nd and
3rd chorus.

7.SHOOTS AND LADDERS

Intro
F|--------------|
C|--------------|
G|--------------|
D|--------------|
A|-0-0--00000X--|

Verse
F|------------------|
C|------------------|
G|------------------|
D|------------------|
a|-0-3-X-00000-0000-|

Chorus
F|------------------------|
C|------------------------|
G|--------------| x3------|
D|--------------|      ---|
A|-3--3-5--4-3--|      ---|
                        |----> Play this twice
F|--------|            ---|
C|--------|            ---|
G|--------| x1 -----------|
D|------------------------|
A|-2-1-0------------------|

Bridge I
F|---------------------------|
C|---------------------------|
G|---------------------------|X7
D|------4\3---------4\3------|
A|-3333-----4\3--33-----4\3--|

F|---------------|
C|---------------|
G|---------------|X1
D|------4\3------|
A|-3333-----4\3--|

After this theres a fade out

Bridge 2
F|------------------------|
C|------------------------|
G|------------------------|x4
D|------------------------|
A|-5555-33--1--5555-3--1--|

Outro
F|------------------|
C|------------------|
G|------------------| x3 ^ Bend this ten down.
D|------------------|
A|-0-0--0-0-0-0-10^-|

F|---------------|
C|---------------|
G|---------------|x1
D|---------------|
A|-0-0--0-0-0-0--|

8.PREDICTABLE

VERSE
G|--------------------------------|
D|--------------------------------|
A|--------------------------------|
E|-------3/2--------------3/2-----|
B|--0-00-----0-2/3--0-2/3-----2/3-|

RIFF 1(usually after the verse)
G|----------------------------------------------------------|
D|----------------------------------------------------------|
A|----------------------------------------------------------|
E|--5/4-4-4-4/3-3-3-3/2-2-2-2/1-----------------------------|
B|------------------------------5/4-4-4-4/3-3-3-3/2-2-2-2/1-|

RIFF 2(after riff 1)
G|------------------------|
D|------------------------|
A|------------------------|
E|------------------------|
B|--0-0--0-0--0-0--0-000--|

RIFF 3
G|-----------------------|
D|-----------------------|
A|-----------------3-2---|
E|--0-----3-22-3-0-----2-|
B|----0-1----------------|

SOLO
(same as riff 3)

AFTER SOLO RIFF 2 CHANGES A BIT
G|---------------|
D|---------------|
A|--------3-2-2--|
E|--0------------|
B|----0-1--------|

END VERSE
same as riff 2

10.FAKE

Intro
F|--------------------|
C|--------------------|
G|--------------------|x8
D|--------------------|
A|-0-3-2-1--1-2-1-2-1-|

F|--------|
C|--------|
G|--------|x1
D|--------|
A|-0-3-2--|

Verse I
F|----------|
C|----------|
G|----------|I think you play this like 14 times
D|----------|
A|-0-1--123-|

F|------|
C|------|
G|------| ~Let ring, You play this the last time.
D|------|
A|-0-1~-|

Pre - Chorus
F|--------------------|
C|--------------------|
G|--------------------|x8
D|--------------------|
A|-0-3-2-1--1-2-1-2-1-|

Chorus
F|----------------|
C|----------------|
G|----------------|
D|----------------|
a|-22-3-223222322-|

Pre - Verse
F|----------|
C|----------|
G|----------|
D|----------|
A|-0~~--0~~-|

Verse II
F|----------|
C|----------|
G|----------| I think you play this like 7 times
D|----------|
A|-0-1--123-|

F|------|
C|------|
G|------| ~Let ring, You play this the last time.
D|------|
A|-0-1~-|

Bridge I
F|----------------------|
C|----------------------|
G|----------------------| x1 "You tried so hard to be wanted......"
D|----------------------|
A|-0~~~~~~~--0~~~~~~~~~-|

Bridge II
F|---------------------|
C|---------------------|
G|---------------------| Play this like 4 times.
D|---------------------|
A|-6/11-11\0-0-6/11-0--|

Bridge III: Same as Chorus.

Lil Bridge (4:30)
F|-------|
C|-------|
G|-------| Theres a guitar "solo" and at the
D|-------| end of the "solo" you play this once.
a|-0-0-0-|

11.LIES

Intro I
F|----|
C|----|
G|----| ~Let Ring
D|----|
A|-0~-|

Intro II
F|------------------|
C|------------------|
G|------------------|
D|------------------|
A|4--3-210-3--2-1--0|

Verse
F|-------------------------|
C|-------------------------|
G|-------------------------|
D|-------------------------|
a|-5-6-5-4-444-4-5-4-3-333-|

Chorus: Same as Intro II

Bridge
F|-------------------------|
C|-------------------------|
G|-------------------------|
D|-------------------------|
a|-5-6-5-4-444-4-5-4-3-333-|

Bridge II
F|--------|
C|--------|
G|--------|x16
D|--------|
A|-0--0-0-|

After Bridge II you keep playing Bridge I until the end of the song.

12.DADDY

tuning: drop a, low to high (a,E,a,d,g)

intro
G|----------------------------------------------------------------|
D|----------------------------------------------------------------|
A|---2---------------2------------2-----------------------0-0-1-2-|
E|-----2-1h2p1-2^2-----2----0-2-----2-1h2p1-2^2---1-1-2-2---------|
A|-2---------------2-----2/-----2---------------2-----------------|
continued
--------------------------------------------------------------|
--------------------------------------------------------------|
---2---------------2--------2--------2---0-0-2---2------------|
-----2-1h2p1-2^2-----2-8\-----2--------2-----------2----0-1-2-|
-2---------------2--------2-----2/-2-----------2-----2/-------|
continued
----------------------------------------------2-8--8-7-5-|
---------------------------------------------------------|
---2---------0-1---2---1-1-0-------3-2----2--------------|
-----2-1-1-2---------2-------2-1------------2------------|
-2---------------2---------------2------2----------------|
continued
---------------------------------------------------------------------|
---------------------------------------------------------------------|
-----0-0h1-1h2---3-2-----------2-------------2-----------2---2---2/3-|
---2-----------------2-----------2-------------2-1h2p1h2-------2-----|
-2-------------2-------2-4^4-2-----2/-2-5--5---------------2---------|
continued
-------------|
-------------|
-----2-------| X1
-------2-2h3-|
-3-2---------|

chorus
   S S P S S P
G|-------------|
D|-------------|
A|-----2-----3-| X8
E|-------------|
A|-2-2---2-2---|

verse
G|------------------------------------------------------------------|
D|------------------------------------------------------------------|
A|-2-------3^3---2------2-------3^3---2-------2-----------2-------2-|
E|-----2-----------2------2-2h3---------2-------2-2h3-3-----2-------|
A|---2---2-----2------2-------------2-----3-2-----------2-----3-2---|
continued
----------------------------------------------------------2p1--------|
--------------------------------------------------------------4h5h6\-|
------------------2-------------2-------------2----------------------|
-2-2/3-3/5-5--------2-2h3-3^3-----2-2-0---------2-2-1-0-1------------|
----------------2-------------2---------2-5-2------------------------|
continued
--------------------------------5-5-4----------------------|
--------------------------------------5-5-------1-1-3-5-5\-|
---2--------------------------2-----------3-2-3------------| X1
-----2-2----7--7-2--2-2-2-3-3------------------------------|
-2-------5/------------------------------------------------|

chorus X8

bridge
G|----------------|
D|----------------|
A|-0-0-0-1--0-0-0-| X2
E|----------------|
A|----------------|

fill
G|-------3--------|
D|----------------|
A|-0-0-0----0-1-0-| X1
E|----------------|
A|----------------|

bridge X1

chorus X16

outro
G|-------8\----------------------------------------------------------|
D|-------------------------------------------------------------------|
A|-2------------5p4p2---------3---2---------2----------------2-------|
E|---2----------------2/3-3/5-------2-5^5-----2----------------2-3^3-|
A|-----2----2-2-----------------2---------2-----2/3-3/5-5--2---------|
continued
------------------------------------------------------------------|
---------1--------------------------------------------------------|
---2---------5\---2-------------------------------2---------2---2-|
-----2-2---2--------2-----------------7^7-10^10-----2---------2---|
-2--------------2-----2/3-3-5-5-5-8^8-----------2-----2-5-2-------|
continued
-----|
-----|
-3-3-| X1
-----|
-----|

I finally put up the bass tab versions for each of Korn's albums.ENJOY!!
Comments