Korn - Kill You Chords & Tabs

 

Kill You Chords & Tabs

Korn Chords & Tabs

Version: 7 Type: Tab 0 ratings
1 star 2 stars 3 stars 4 stars 5 stars
comments

Kill You Tab

   
Song: "Kill You"
Artist: Korn
Album: Life Is Peachy


Tuning: 1 Step Down (A,D,G,C,F,A,D)

Intro:(Guitar2)
d|-------------------------------------|
a|-------------------------------------|
F|-------------------------------------|
C|----000---000--0----000555000-----0--|
G|-555---555---55-5444---------44455-5-|
D|-------------------------------------|
A|-------------------------------------|

Verse:(Guitar2)
d|-------------------------------------|
a|-------------------------------------|
F|-------------------------------------|
C|----000---000--0----000555000-----0--|
G|-555---555---55-5444---------44455-5-|
D|-------------------------------------|
A|-------------------------------------|

Pre-Chorus:(Guitar1 & Guitar2)
d|-------------|
a|-------------|
F|-------------|
C|--------4~---|
G|-5~~~4~~4~3~-|
D|-5~~~4~~2~3~-|
A|-3~~~2~~--1~-|

Verse:(Guitar2)
d|-------------------------------------|
a|-------------------------------------|
F|-------------------------------------|
C|----000---000--0----000555000-----0--|
G|-555---555---55-5444---------44455-5-|
D|-------------------------------------|
A|-------------------------------------|
[ Tab from: http://www.guitartabs.cc/tabs/k/korn/kill_you_tab_ver_7.html ]
Pre-Chorus:(Guitar1 & Guitar2)
d|-------------|
a|-------------|
F|-------------|
C|--------4~---|
G|-5~~~4~~4~3~-|
D|-5~~~4~~2~3~-|
A|-3~~~2~~--1~-|

Chorus:(Guitar1 & Guitar2)
d|----------------|
a|----------------|
F|----------------|
C|-------4--------|
G|-5--6--4--3-4-6-|
D|-5--6--2--3-4-6-|
A|-3--4-----1-2-4-|

Bridge1:
d|---------------------|
a|---------------------|
F|---------------------|
C|---------------------|	(Guitar2)
G|---------------------|
D|-2-22-2-2--2-2--2222-|
A|-0-00-0-0--0-0--0000-|

d|-18\17----14\13------|
a|---------------------|
F|---------------------|
C|---------------------|	(Guitar1)
G|---------------------|
D|---------------------|
A|---------------------|

Verse:(Guitar2)
d|-------------------------------------|
a|-------------------------------------|
F|-------------------------------------|
C|----000---000--0----000555000-----0--|
G|-555---555---55-5444---------44455-5-|
D|-------------------------------------|
A|-------------------------------------|

Chorus:(Guitar1 & Guitar2)
d|----------------|
a|----------------|
F|----------------|
C|-------4--------|
G|-5--6--4--3-4-6-|
D|-5--6--2--3-4-6-|
A|-3--4-----1-2-4-|

Bridge:
d|-------------|
a|-------------|
F|-------------|
C|--------4~---|	(Guitar2)
G|-5~~~4~~4~3~-|
D|-5~~~4~~2~3~-|
A|-3~~~2~~--1~-|
Comments