Korn - Kill You Chords & Tabs

 

Kill You Chords & Tabs

Korn Chords & Tabs

Version: 6 Type: Tab 0 ratings
1 star 2 stars 3 stars 4 stars 5 stars
comments

Kill You Tab

Band : Korn
Song : Kill You
Tabbed By Roddy

Intro

Gtr.1
D --------------------------------------------------------------------------|
A --------------------------------------------------------------------------|
F -----------------------------------------------0-0--0---------------------|
C --0-0-0-0-0-0-0-0--0-0-0-0-0-0-0-0-------0-0-0--------0-0-0-----0---------|
G -----------------------------------4-4-4--------------------4-4---4-------|
D --------------------------------------------------------------------------|
A --------------------------------------------------------------------------|


Verses 1 & 2

Gtrs 1 & 2
D --------------------------------------------------------------------------|
A --------------------------------------------------------------------------|
F -----0---------0-------0-----------------0---------------(0)--------------|
C -----4-----------------4--------------------------------------------------|
G -----5---------------------------4----------------------------------------|
D --------------------------------------------------------------------------|
A --------------------------------------------------------------------------|


Pre-Chorus

Gtrs 1 & 2
D --------------------------------------------------------------------------|
A --------------------------------------------------------------------------|
F --------------------------------------------------------------------------|
C -------------------------------2------------------------------------------|
G --5-------------2--------------2----------------1-------------------------|
D --5-------------2--------------4----------------1-------------------------|
A --3-------------4-------------------------------3-------------------------|


Chorus
[ Tab from: http://www.guitartabs.cc/tabs/k/korn/kill_you_tab_ver_6.html ]
Gtrs 1 & 2                
D ----------------------------------------------|
A ----------------------------------------------|
F ----------------------------------------------|
C -----------------4----------------------------|
G ---5------6------4--------3------4----6-------|
D ---5------6------2--------3------4----6-------|        
A ---3------4---------------1------2----4-------|   x4


Bridge

Gtrs 1 & 2
D --------------------17-(17)--------------------------------------------|
A -------------------------------------------------------------18-(18)---|
F -----------------------------------------------------------------------|
C -----------------------------------------------------------------------|
G -----------------------------------------------------------------------|
D -----------------------------------------------------------------------|
A ------0----0--------------------0----0----0------0-0-0-----------------|


End Of Bridge
                            
Gtr 1                            Gtr 2
D ---------------------------|   D ------------------------------------------|
A ---------------------------|   A ------------------------------------------|
F ---------------------------|   F ----------------0-0---0-------------------|
C ---------------------------|   C ----------0-0-0----------0-0-0------------|
G ---------------------------|   G ---4-4-4------------------------4---------|
D ---------------------------|   D ------------------------------------------|
A -------0-----0-0--1--0-----|   A ------------------------------------------|


Outro

Either Gtr
D ---------------------------------------------------------------------------|
A ---------------------------------------------------------------------------|
F ---------------------------------------------------------------------------|
C ------------4-------------------------------------4----5-------------7-----|
G -----------------5----4---------------------------------------5-4-5--------|
D ---------------------------5-----------------------------------------------|
A ---1-----------------------------3--------1--------------------------------|

THIS IS MY SECOND TAB MY FIRST ONE WAS WICKED AND IT HAS NOT BEEN RATED
YET SO IF YOU COULD RATE THIS ONE AND THAT ONE.
Comments