Korn - Justin Chords & Tabs

 

Justin Chords & Tabs

Korn Chords & Tabs

Version: 1 Type: Tab 0 ratings
1 star 2 stars 3 stars 4 stars 5 stars
comments

Justin Tab

   
Justin by KoRn
Guitarist: Munky + Head
Album: Follow The Leader
Dif.: 7
Tabbed by TWIGGY5

NOTE: Tune full step down (A D G C F A D)

Intro/Verse/Fill 1 (Gtr. 1) (w/ envelope filter)
D|-10-7---7-10-7-------9-6---9-6-|
A|------0---------0--0-----0-----|

Intro P2/Chorus (Both Guitars)
A|-0-0---0--0-0--0---0-0--0-0-0---0-0--0-0--0--6-0-6-| ß LOW A

Verse (Gtr. 2) (clean w/ fast tremelo)
D|-------------------------5----4--|
A|-----------------------3---------|
F|---------------------6-----------|

Verse/Outro (Gtr. 3) (w/whammy)
d|--19~~~~~~~~~~~------------------| ß high d

Bridge (Both Guitars) (“Fly!!!!!!!”)
D|-------------9------8----------------|-%-|
A|-0-----------7------6----------7-0-7-|-%-|

Bridge (Gtr. 3) (clean)
D|-----------------0-----0--------|
A|-----------------0-----0--------|
F|-----------------4-----4--------|
C|-----------------2-----2--------|

Fill 2 (Gtr. 2)
A|-0-------------------------| ß low A
    >>>>>>>>>>>>>>>

Fill 3 (Gtr. 1) (“You… aren’t alive…”)
D|-10-7---7-10-7-------9-6-----|
A|------0---------0--0---------|

Interlude (Gtr. 2)
D|-2--2------2--2-3-|-%-|-%-|-%-|
A|-0--0------0--0-1-|-%-|-%-|-%-|
                  PM

Outro (Gtr. 2) (clean w/ fast tremelo)
D|------5-----4--|
A|----3----------|
F|-6-------------|

Outro (Gtr. 1) (w/ whammy)
d|-----21---21---22---22--------------21-----21----22---22--
 High D

Outro (cont.)
d|--------21----21-----22---22--------21----21-----|
 High D

Song Structure: -
Intro (Gtr. 1)
Intro P2 (Both Guitars)
Verse (Gtr. 1)/Verse (Gtr. 2)/Verse (Gtr. 3) (“You watch me….”)
Chorus (Both Guitars)
Verse (Gtr. 1)/Verse (Gtr. 2)/Verse (Gtr. 3) (“You’re gonna….”)
Chorus (Both Guitars)
Bridge (Both Guitars)/Bridge (Gtr. 3) (Gtr has flanger)
Fill 1 (Gtr. 1)/Fill 2 (Gtr. 2)
Fill 3 (Gtr. 1)
Fill 1 (Both Guitars)
Interlude (Gtr. 1)/Interlude (Gtr. 2)
Chorus (Both Guitars) (“Time or deep space……..”)
Outro (Gtr. 1)/Outro (Gtr. 2)/Outro (Gtr. 3) (Repeat and fade)
[ Tab from: http://www.guitartabs.cc/tabs/k/korn/justin_tab.html ]
There you are. A song about a kid dying from cancer. uhhhhh…………. 
Ya…. If you have any comments, corrections or suggestions email me 
at toxic345x@yahoo.ca
===========Justin - Korn

Transcribed by Fred Salas

6-string guitar tuned down 1 whole step 
(low to high: A D G C F A)


Intro  (w/ some wah and other pedal)

|| ----------------------------------------------
|| ----------------------------------------------
|| ----------------------------------------------
|| ----------------------------------------------
|| ----------------------------------------------
|| --15p12--0-12-15p12--0--0--14p11-0--14p11-----

Easy part (chorus) after.."fuck all that bullshit!!"

|| ------------------------------------------------------------
|| -------------------------------------(pm)----------------
|| ---0-0--0--0-0-0--0--000-0--0--0-0-0--6-0-6---   repeat

Riff 1, after chorus
I dont know the high part, but the other part goes like this 

**play this with the intro with a clean tone

|| ------------------------------------------------------
|| --------------------------------------------14--------
|| ---------------------------------------11-------------
|| ------------------------------------------------------ repeat
|| ---------------------------------4-------------------- til chorus
|| ---(bass line)-3--3-2---------------------------------

Chorus..

Riff 1 again

Chorus... then

Bass plays this

Riff 2
|| ---------------------------------------------------
|| ---------------------------------------------------
|| ---------------------------------------------------
|| --0----6--5--3--0-2-3--0-6--5--3--0-2-3--   repeat.

Guitars play this, plus some fucked up effects

|| ---------------------------------------------------
|| ---------------------------------------------------
|| ---0---6--5--3--7-0-7---0-6--5--3--7-0-7-   repeat..

Then play intro again..

Then chorus..

Then at about the 3:17 mark

|| ----------------------------------
|| ----------4-(bend up)-------------
|| ----------------------------------
|| --------------------------3-------
|| --------------------------3------- (heavy palm mute)
|| ---0-0-0--------0-0-0-0---1-------

Repeat this and play chorus again.. then riff 1 again till end 
of song...
Comments