Korn - Justin Chords & Tabs

 

Justin Chords & Tabs

Korn Chords & Tabs

Version: 4 Type: Bass Tab

Justin Bass Tab

   
-------------------------------------------------------------------------------
			        JUSTIN - KoRn
-------------------------------------------------------------------------------

Tabbed By : KoRnKid89
e-mail: XblytheX89@aol.com

Tuning: ADGCF

  Intro pt.1:
F|----------------------|     |------------------------|
C|----------------------|     |------------------------|
G|----------------------|     |----------------4-------|
D|-----3-------4~-------|     |-----3-------4-----4----|
A|--2----3-2------------|(x3) |--2----3-2--------------|

F|----------------------|------------------------|  |----------------------|
C|----------------------|------------------------|  |----------------------|
G|----------------------|-----------------4------|  |----------------------|
D|-----3-------4~-------|-----3-------3-3---3h4--|  |-----3-------4~-------|
A|--2----3-2------------|--2----3-2--------------|  |--2----3-2------------|(x2)



  Intro pt.2 / Chorus:
    S  S   S  S S  S   S  S SSS  S  S S  S   S
F|--------------------------------------------------|
C|--------------------------------------------------|
G|--------------------------------------------------|
D|--------------------------------------------------|
A|--0--0---0--0-0--0---0--0-000--0--0-0--0---6p5h6--|(x4)



  Verse 1:
F|----------------------|     |------------------------|  |----------------------|
C|----------------------|     |------------------------|  |----------------------|
G|----------------------|     |----------------4-------|  |----------------------|
D|-----3-------4--------|     |-----3-------4-----4----|  |-----3-------4--------|
A|--2----3-2------------|(x3) |--2----3-2--------------|  |--2----3-2------------|(x4)


  
  Verse 2:
F|----------------|     |----------------------|
C|----------------|     |----------------------|
G|----------------|     |----------------------|
D|----------------|     |-----3-------4--------|
A|--(3)----(2)----|(x4) |--2----3-2------------|(x4)

[ Tab from: http://www.guitartabs.cc/tabs/k/korn/justin_btab_ver_4.html ]
  
  Bridge pt.1:
F|------------------------------|-----------------------------|
C|------------------------------|-----------------------------|
G|------------------------------|-------------------8---------|
D|------------------------------|-----------------7---7-------|
A|--0-----0-7--(5)-6---x-x-xxx--|----0---7--(5)-6--------7-6--|
  
    S S S S
F|------------------------------|-----------------------------|
C|------------------------------|-----------------------------|
G|------------------------------|-------------------8---------|
D|------------------------------|-----------------7---7-------|
A|--0-0-0-0-7--(5)-6---x-x-xxx--|----0---7--(5)-6--------7-6--|

F|------------------------------|-----------------------------|
C|------------------------------|-----------------------------|
G|------------------------------|-------------------8---------|
D|------------------------------|-----------------7---7-------|
A|--0--0--0-7--(5)-6---x-x-xxx--|----0---7--(5)-6--------7-6--|

F|------------------------------|-----------------------------|
C|------------------------------|-----------------------------|
G|------------------------------|-----------------------------|
D|------------------------------|-----------------------------|
A|-----0000-7--(5)-6---x-x-xxx--|----0---7--(5)-6~------------|

  Bridge pt.2:
    S  S   S  S S  S   S  S SSS  S  S S  S   S
F|--------------------------------------------------|
C|--------------------------------------------------|
G|--------------------------------------------------|
D|--------------------------------------------------|
A|--0--0---0--0-0--0---0--0-000--0--0-0--0---6p5h6--|(x2)

  Bridge pt.3:
    S S S     SS S S
F|-----------------------|
C|-----------------------|
G|-----------------------|
D|-----------------------|
A|--0-0-0-----00-0-0-h1--|(x4)



  Outro:
F|----------------------|     |------------------------|
C|----------------------|     |------------------------|
G|----------------------|     |-----------------4------|
D|-----3-------4~-------|     |-----3-------4-4--44p3--|
A|--2----3-2------------|(x3) |--2----3-2--------------|

F|----------------------|     |------------------------|
C|----------------------|     |------------------------|
G|----------------------|     |----------------4-------|
D|-----3-------4~-------|     |-----3-------4-----4----|
A|--2----3-2------------|(x3) |--2----3-2--------------|



| P  pop
| S  slap
| /  slide up
| \  slide down
| h  hammer-on
| p  pull-off
| ~  vibrato
| +  harmonic
| x  Mute note
===============================================================================