Korn - Justin Chords & Tabs

 

Justin Chords & Tabs

Korn Chords & Tabs

Version: 2 Type: Bass Tab 0 ratings
1 star 2 stars 3 stars 4 stars 5 stars
comments

Justin Bass Tab

Band - KoRn
Song - Justin
Tabbed by - Justin "Twist" Matteson

Intro/Chorus-
G|--------------------------------------------|
D|--------------------------------------------|
A|--------------------------------------------|
D|--------------------------------------------|
A|--00--0--000--0--0000--0--0--00--6-0-6-0----|

[ Tab from: http://www.guitartabs.cc/tabs/k/korn/justin_btab_ver_2.html ]
Verse 1-
G|--------------------------------------|
D|--------------------------------------|
A|--------------------------------------|
D|-----------17------------------16-----|
A|----15---------15---14----------------|
goes to this-
G|--------------------------------------------|
D|--------------------------------------------|
A|--------------------------------------------|
D|-----------17------------------------19-----|
A|----15---------15---14--14/19------18-------|

Riff before guitar intro, or after, cant remember
G|-------------------------------------------------------------------|
D|-------------------------------------------------------------------|
A|-------------------------------------------------------------------|
D|-------------------------------------------------------------------|
A|-0----7---6--------7--0--7--000---7---6-------7--0--7--000---7---6-|
Comments