Korn - Josh Chords & Tabs

 

Josh Chords & Tabs

Korn Chords & Tabs

Version: 1 Type: Tab 0 ratings
1 star 2 stars 3 stars 4 stars 5 stars
comments

Josh Tab

   
group: Korn
name: Josh
song: Blind

INTRO Guitar 1 (Flanger/Distortion)
 (4e&a)
e-4444
B-3333
G-3333
D-0000
A-----
D-----

2ND TINRO Guitar Two(Distortion)

e--------
B--------
G--------
D---4---5
a-2-4-2-5
D-2---2--

Then.........
e----------------
B----------------
G----------------
D----------------
A----------------
D-0-2-0-3-0-2-0-3

Riff 2 guitar 1 (distortion)
e----------
B----------
G----------
D-0-------1
A-0-------1
D-0-------1Riff 1 (distortion)
e---------------------
B---------------------
G---------------------
D-0-2-0-3-0-2-0-3/5555
a-0-2-0-3-0-2-0-3/5555
D-0-2-0-3-0-2-0-3/5555

e--------------------
B--------------------
G--------------------
D-0000-3-0-2-0-3/5555
a-0000-3-0-2-0-3/5555
D-0000-3-0-2-0-3/5555

Riff 2 guitar 2 (flanger/chorus)
e-----------------
B12---------------
G-x---------------
D-9*------------9*
A-----------------
D-----------------
[ Tab from: http://www.guitartabs.cc/tabs/k/korn/josh_tab.html ]
Riff 3 Guitar 1 (Distortion)
e-------------------
B-------------------
G-------------------
D-------------------
A----2-01/2-00-1-0/5
D0-- 2-01/2-00-1-0/5
 ^
 l-------some how this open he puts flanger in there

Chorus Guitar 2 (flanger/distortion)
              (4e&a)
e-4-0*---------4444
B-3-0*---------3333
G-3-0*---------3333
D-0-0*---------0000
A------------------
D------------------

Riff 4 Guitar 1 (distortion)
e---------------------
B---------------------
G---------------------
D-0-2-0-3-0-2-0-3/5555
a-0-2-0-3-0-2-0-3/5555
D-0-2-0-3-0-2-0-3/5555

e--------------------
B--------------------
G--------------------
D-0000-3-0-2-0-3/5555
a-0000-3-0-2-0-3/5555
D-0000-3-0-2-0-3/5555

(((((((((((((BASS)))))))))))))))

Outro (distortion/flanger)
e--xxxx-21^--------21^---17/9
B--xxxx------------------17/9
G----------------------------
D----------------------------
A----------------------------
D----------------------------

Thanks- Have lots more guitar tabs if you need any of them i can tabb hem for you just e-Mail me at Ibanez423@aol.com (or) FabTone_23@aol.com
Comments