Korn - Its On Chords & Tabs

 

Its On Chords & Tabs

Korn Chords & Tabs

Version: 3 Type: Tab 0 ratings
1 star 2 stars 3 stars 4 stars 5 stars
comments

Its On Tab

   
Band: KoRn
Album: Follow The Leader
Song: It's On
Transcribed by: RipHead
Tuning (A D G C F A D)

-------------------------------------------------------------- 

Intro - Brian
d||-------------------------||
a||-------------------------||
F||-------------------------||
C||-------------------------||
G||--2222-0000-2222-333333--||
D||-------------------------||
A||-------------------------|| (wah-wah)


Intro 2 / Verse - Brian					 Verse 2
d||-----------------------------------------------12~~~~~||------------------------------------||
a||-12~~~~~~~~~~-----------------------13~~--------------||-12~~~-----------12~~~~~~-----------||
F||-------------12~~~~~~~~11~~~~~~~~~~~~-----------------||-------10~~~-------------12~~~~~----||
C||------------------------------------------------------||-------------14~~~--------------11~~||
G||------------------------------------------------------||------------------------------------||
D||------------------------------------------------------||------------------------------------||
A||------------------------------------------------------||------------------------------------||

Intro 2 / Verse - Munky
d||-----------------------------------||
a||-----------------------------------||
F||-----------------------------------||
C||-----------------------------------||
G||-----------------------------------||
D||-----------------------------------|| 
A||-0-13p12-0-13p12--0--13p12-0-12h13-|| (Heavy Distortion)
[ Tab from: http://www.guitartabs.cc/tabs/k/korn/its_on_tab_ver_3.html ]
PreChorus - Munky
d||---------------------------------------||
a||---------------------------------------||
F||---------------------------------------||
C||---------------------------------------||
G||---------------------------------------||
D||---------------------------------------|| 
A||-0-13p12-0-13p12--0--13p12-0-12h13~~~~-|| (Distortion)

PreChorus - Brian
d||---------------------------------------||
a||---------------------------------------||
F||---------------------------------------||
C||---------------------------------16~~--||
G||---------------------------------x-----||
D||---------------------------------14~~--|| 
A||-0-13p12-0-13p12--0--13p12-0-12--------|| (Distortion)

Chorus - Brian & Munky
d||--------------------------------------------||---------------------------------------||
a||--------------------------------------------||---------------------------------------||
F||--------------------------------------------||---------------------------------------||
C||--------------------------------------------||---------------------------------------||
G||--9-----------7-------10--------3-----2-----||--9----------7---------10-----2--------||
D||--9-----------7-------10--------3-----2-----||--9----------7---------10-----2--------||
A||--7-----------5-------8---------1-----0-----||--7----------5---------8------0--------||

Bridge - Munky
d||-------------------------------------||
a||-------------------------------------||
F||-------------------------------------||
C||-------------------------------------||
G||-------------------------------------||
D||-------------------------------------|| 
A||-0-13p12-0-12--12--13p12-0-12h13~~~~-||
Comments