Korn - Its On Chords & Tabs

 

Its On Chords & Tabs

Korn Chords & Tabs

Version: 1 Type: Bass Tab 0 ratings
1 star 2 stars 3 stars 4 stars 5 stars
comments

Its On Bass Tab

Her is the tab for KoRn "It's On!" I think that it is in ascii format. Please
post it, thanx!
                            KoRn "It's On!"
        Track 13 off of "Follow the leader" on Sony/Epic Records.
This song was a pain in the a$$ to figure out. The chorus i think is right. Same with everything else. For the main riff, slap averything, but the 3 on the b string, which is popped. The verse isn't slapped or popped. I'm gonna work on it, and figure out if a tabbed anything wrong and post the changes. If you want me to post any other tab, e-mail at lowend9754@aol.com, and i'll tab it for you!


                 Come on! (Intro)              8x                       
F---||--------------------|--------------------||--||-------------------
C---||--------------------|--------------------||--||-------------------
G---||*-------------------|----------------3--*||--||*--0--3p-----------
D---||*-------------------|-------------------*||--||*------------------
A---||---0--3p2--0--2--0--|--0--3p2--0--2------||--||-------------------
                                                                        

    Verse 1 & 2                      12x              Pre-Chorus        
F---------------|--------------------||--||--------------------|--------
C---------------|--------------------||--||--------------------|--------
G---2--0--2--0--|--0--3p2--0--2--3--*||--||*-------------------|--------
D---------------|-------------------*||--||*-------------------|--------
A---------------|--------------------||--||---0--3p2--0--2--0--|--0-----
                                                                        

                   8x       Chorus                                      
F------------------||--||-----------------------------|-----------------
C------------------||--||-----------------------------|-----------------
G--------------3--*||--||*-----12--10--5--5--7h8p6h7--|--10--12--5------

D-----------------*||--||*----------------------------|-----------------
A---3p2--0--2------||--||-----------------------------|-----------------
                                                                        
[ Tab from: http://www.guitartabs.cc/tabs/k/korn/its_on_btab.html ]
                 2x       "Hold me inside.." (Bridge)                   
F----------------||--||--------------------|----------------------------
C----------------||--||--------------------|----------------------------
G---5--7h8p6h7--*||--||*--0--3p2--0--2--0--|--0-----3p2--0--2^--(3)-----
D---------------*||--||*-------------------|----------------------------
A----------------||--||--------------------|----------------------------
                                                                        

     8x       Outro                                 8x  Fade out        
F----||--||--------------------|--------------------||------------------
C----||--||--------------------|--------------------||------------------
G---*||--||*-------------------|----------------3--*||------------------
D---*||--||*-------------------|-------------------*||------------------
A----||--||---0--3p2--0--2--0--|--0--3p2--0--2------||------------------
                                                                        



========================================================================
==                       TABLATURE EXPLANATION                        ==
========================================================================

----------                ----------                ----t---
----5h8--- Hammeron       ----(8)--- Ghost          ----6--- Tap
----------                ---------- Note           --------
----5p8--- Pulloff        ----------                --------

----------                ----------                -----p--
----5/8--- Slide Up       -----x---- Dead           -----7-- Pop
----------                ---------- Note           --s-----
----5\8--- Slide Down     ----------                --5----- Slap 

----------                ||------|| Repeat         --------
----5~~~-- Vibrato        ||*----*||                ---5^--- Bend
----------                ||*----*||                --------
----------                ||------||                --------

----------                ----------                --------
-4:------- Time           ----------                --------
-4:------- Signature      ----------                --------
----------                ----------                --------

Rhythm:
  w = whole note            W = dotted whole
  h = half note             H = dotted half
  q = quarter note          Q = dotted quarter
  e = eighth note           E = dotted eighth
  s = sixteenth note        S = dotted sixteenth
  t = 32nd note             T = dotted 32nd
  x = 64th note             X = dotted 64th
  ^ = triplet

========================================================================
==            Created with a demo version of BUCKET O' TAB            ==
==              tablature creation software for Windows               ==
==                  For more info email gse@his.com                   ==
========================================================================

Comments