Korn - Im Done Chords & Tabs

 

Im Done Chords & Tabs

Korn Chords & Tabs

Version: 5 Type: Tab 0 ratings
1 star 2 stars 3 stars 4 stars 5 stars
comments

Im Done Tab

Band- Korn
Song- I'm Done

Intro 4x with some effect I don�t really know
D------------------------------------|
A------------------------------------|
F---------14-----15-----10------10---|
C-12-12------12-----12------10-------|
G------------------------------------|
D------------------------------------|
A------------------------------------|

w/heavy dist
D-------------------------------------------------------------|
A-------------------------------------------------------------|
F-------------------------------------------------------------|
C-------------------------------------------------------------|
G-------------------------------------------------------------|
D-5-5-5-5-5---5-5-5-5-5---5-8---5-5-5-5-5---5-8---5-5-5-5-5---|
A-3-3-3-3-3---3-3-3-3-3---3-6---3-3-3-3-3---3-6---3-3-3-3-3---|

w/heavy dist.
D--------------------------------------------------------------|
A--------------------------------------------------------------|
F--------------------------------------------------------------|
C--------------------------------------------------------------|
G--------------------------------------------------------------|
D-5-8---5-5-5-5-5---5-6---5-5-5-5-5---5-8---5-5-5-5-5---5-8----|
A-3-6---3-3-3-3-3---3-4---3-3-3-3-3---3-6---3-3-3-3-3---3-6----|

w/heavy dist
D--------------------------------------|
A--------------------------------------|
F--------------------------------------|
C--------------------------------------|
G--------------------------------------|
D-5-5-5-5-5---5-8---5-5-5-5-5---5-6----|
A-3-3-3-3-3---3-6---3-3-3-3-3---3-4----|

w/heavy dist
D--------------------------------------------------------|
A--------------------------------------------------------|
F--------------------------------------------------------|
C--------------------------------------------------------|
G--------------------------------------------------------|
D------5-5-------8--------5-5-------8--------5-5-------8-|
A-3-3------3---3-6---3-3-----3---3--6---3-3------3---3-6-|

w/heavy dist
D-------------------------------------------------------|
A-------------------------------------------------------|
F-------------------------------------------------------|
C-------------------------------------------------------|
G-------------------------------------------------------|
D-----5-5-------6--------5-5-------8--------5-5-------8-|
A-3-3-----3---3-4---3-3------3---3-6---3-3------3---3-6-|

w/heavy dist
D---------------------------------------|
A---------------------------------------|
F---------------------------------------|
C---------------------------------------|
G---------------------------------------|
D------5-5-------8-------5-5-------6----|
A-3-3------3---3-6---3-3-----3---3-4----|

Chorus w/heavy dist 2 times
D---------------------------------------------------|
A---------------------------------------------------|
F---------------------------------------------------|
C---------------------------------------------------|
G---------------------------------------------------|
D-2-2-2-9---2-2-2---9-8-7---2-2-2-9---2-2-2-5-7-3---|
A-0-0-0-7---0-0-0---7-6-5---0-0-0-7---0-0-0-3-5-1---|

[ Tab from: http://www.guitartabs.cc/tabs/k/korn/im_done_tab_ver_5.html ]
Rest for 4 measures and then play w/heavy dist
D--------------------------------------------------------------|
A--------------------------------------------------------------|
F--------------------------------------------------------------|
C--------------------------------------------------------------|
G--------------------------------------------------------------|
D------5-5-------8--------5-5------8--------5-5-------8--------|
A-3-3------3---3-6---3-3-----3---3-6---3-3------3---3-6--------|

w/heavy dist
D--------------------|
A--------------------|
F--------------------|
C--------------------|
G--------------------|
D-----5-5-------6----|
A-3-3-----3---3-4----|

Chorus w/heavy dist 2 times
D---------------------------------------------------|
A---------------------------------------------------|
F---------------------------------------------------|
C---------------------------------------------------|
G---------------------------------------------------|
D-2-2-2-9---2-2-2---9-8-7---2-2-2-9---2-2-2-5-7-3---|
A-0-0-0-7---0-0-0---7-6-5---0-0-0-7---0-0-0-3-5-1---|

w/heavy dist
D------------------------------------------------------|
A------------------------------------------------------|
F------------------------------------------------------|
C------------------------------------------------------|
G------------------------------------------------------|
D------5-5------8-------5-5-------8--------5-5-------8-|
A-3-3-----3---3-6---3-3-----3---3-6---3-3------3---3-6-|

w/heavy dist
D------------------|
A------------------|
F------------------|
C------------------|
G------------------|
D-----5-5-------6--|
A-3-3-----3---3-4--|

Bridge
D---------------------------------------------------------------|
A----14-------12---------------14--17-----12--------------------|
F-16----14-13----9-8�--16--14---------13------9-8--------|
C---------------------------------------------------------------|
G---------------------------------------------------------------|
D---------------------------------------------------------------|
A---------------------------------------------------------------|

D------------------------------------|
A------------14-----17-----12--------|
F-16----14-----13------13-----9-8----|
C------------------------------------|
G------------------------------------|
D------------------------------------|
A------------------------------------|

Repeat as many times needed* w/weird effect
D-----------------------------------------|
A-----------------------------------------|
F-----------------------------------------|
C-9�11-12�-14--17-16--------|
G-x--x--x---x---x--x----------------------|
D-7--9�-10--12-15�14--------|
A-----------------------------------------|
  *  *   *  *   *  *

w/weird effect
D---------------------------------------------|
A---------------------------------------------|
F---------------------------------------------|
C-9�11-12�14�-17--16-----|
G-x--x--x--x---x---x--------------------------|
D-7--9�10--12--15�-14-----------|
A---------------------------------------------|

Chorus w/heavy dist 2 times
D---------------------------------------------------|
A---------------------------------------------------|
F---------------------------------------------------|
C---------------------------------------------------|
G---------------------------------------------------|
D-2-2-2-9---2-2-2---9-8-7---2-2-2-9---2-2-2-5-7-3---|
A-0-0-0-7---0-0-0---7-6-5---0-0-0-7---0-0-0-3-5-1---|

Outro w/heavy dist 3 times
D------------------|
A------------------|
F------------------|
C------------------|
G------------------|
D-5-5-5-5-5---5-8--|
A-3-3-3-3-3---3-6--|


Outro w/heavy dist
D-------------|
A-------------|
F-------------|
C-------------|
G-------------|
D-5-5-5-5-5---|
A-3-3-3-3-3---|

ENJOY!!!!!
Comments