Korn - Im Done Chords & Tabs

 

Im Done Chords & Tabs

Korn Chords & Tabs

Version: 4 Type: Tab 0 ratings
1 star 2 stars 3 stars 4 stars 5 stars
comments

Im Done Tab

Song: I'm done

Tabbed by: Erling


Intro(soft-slow tempo)
--------------------------------------
--------------------------------------
--------------------------------------
-----------5----------------5---------  x4
------2----3---------2------3---------
-----------3----------------3---------


Pre-Chorus 1 (heavy)

--------------------------------------
--------------------------------------
--------------------------------------
---------0-2-0-2-0-2-0-2-------------- 
---------0-2-0-2-0-2-0-2--------------
---------0-2-0-2-0-2-0-2--------------


Pre-Chorus 2 (heavy distortion)

--------------------------------------
--------------------------------------
--------------------------------------
---0-2-0-2-0-2-0-2---1-3-------------- x8
---0-2-0-2-0-2-0-2---1-3--------------
---0-2-0-2-0-2-0-2---1-3--------------


Verse
[ Tab from: http://www.guitartabs.cc/tabs/k/korn/im_done_tab_ver_4.html ]
--------------------------------------
--------------------------------------
--------------------------------------
-------------------------------------- x4
--------------------------------------
---0-2-0-2-0-2-0-2---1-3--------------


Chorus

---------------------------------------
--22222244444466666888888--9-12-6------
--22222244444466666888888--9-12-6------
--22222244444466666888888--9-12-6------
---------------------------------------
---------------------------------------


Soft play

---------------------------------------
---------------------------------------
---------------------------------------
--------------------------------------- x5
---------------------------------------
---0x2x0x2x0x2x0x2x---1x3x-------------


Outro(heavy distortion)

--------------------------------------
--------------------------------------
--------------------------------------
---0-2-0-2-0-2-0-2---1-3-------------- x5
---0-2-0-2-0-2-0-2---1-3--------------
---0-2-0-2-0-2-0-2---1-3--------------

I love this song, it is very cool and quite easy, ENJOY!
 Any questions contact: erling_kylstad@ofs.edu.sg
Comments