Korn - Hypocrites Chords & Tabs

 

Hypocrites Chords & Tabs

Korn Chords & Tabs

Version: 3 Type: Tab

Hypocrites Tab

   
KoRn - Hypocrites - See You On The Other Side

Tabbed by Elvisz (elvisz@kornkids.com)
                 (elvisz84@yahoo.com)

Tuning : 7 String Tuned Low to High (A D G C F A D)

Vocal: Jonathan Houseman Davis 'Hiv'
Guitar: James Randal Shaffer 'Munky'
Bass: Reginald Arvizu 'Fieldy'
Drums: David Silveria

Intro:
d|------------------------|-------------------------|------------------------|
a|------------------------|-------------------------|------------------------|
F|------------------------|-------------------------|------------------------|
C|------------------------|-------------------------|------------------------|
G|---7-5h7-77-888-555-/10-|---7-5h7-77-101010-55555-|---7-5h7-77-888-555-/10-|
D|-0~~--------------------|-0~~---------------------|-0~~--------------------|
A|------------------------|-------------------------|------------------------|

d|-----------------------|--------------------------|-------------------------|
a|-----------------------|--------------------------|-------------------------|
F|-----------------------|--------------------------|-------------------------|
C|-----------------------|--------------------------|-------------------------|
G|---7-5h7-77-555-888-10-|---7-5h7-77-888-555-10-10-|---7-5h7-77-101010-888-5-|
D|-0~~-------------------|-0~~----------------------|-0~~---------------------|
A|-----------------------|--------------------------|-------------------------|

d|------------------------|-----------------------|-------------------------|
a|------------------------|-----------------------|-------------------------|
F|------------------------|-----------------------|-------------------------|
C|------------------------|-----------------------|-------------------------|
G|---7-5h7-77-888-555-/10-|---7-5h7-77-555-888-10-|---7--5h7-77-888-555-/10-|
D|-0~~--------------------|-0~~-------------------|-0~~---------------------|
A|------------------------|-----------------------|-------------------------|

d|-------------------------|-------------------------|------------------------|
a|-------------------------|-------------------------|------------------------|
F|-------------------------|-------------------------|------------------------|
C|-------------------------|-------------------------|------------------------|
G|---7-5h7-77-101010-55555-|---7--5h7-77-888-555-/10-|---7--5h7-77-555-888-10-|
D|-0~~---------------------|-0~~---------------------|-0~~--------------------|
A|-------------------------|-------------------------|------------------------|

d|---------------|
a|---------------|
F|---------------|
C|-12~~~~-11~~~~-|	(guitar in the background)
G|---------------|
D|---------------|
A|---------------|

Verse: (with no lyrics)
d|-----------------------|-------------------------|
a|-----------------------|-------------------------|
F|-----------------------|-------------------------|
C|-----------------------|-------------------------|
G|-----------------------|-------------------------|
D|-7-7-5/7-77-8-8-5-5-10-|-7-7-5/7-77-10~-10-8-8-6-|
A|-5-5-3/5-55-6-6-3-3- 8-|-5-5-3/5-55- 8~- 8-6-6-4-|
           ..   .   .              ..      .   .     .palm mute

d|-----------------------|-----------------------|
a|-----------------------|-----------------------|
F|-----------------------|-----------------------|
C|-----------------------|-----------------------|
G|-----------------------|-----------------------|
D|-7-7-5/7-77-8-8-5-5-10-|---7-5/7-77-6~X-8~X-10-|
A|-5-5-3/5-55-6-6-3-3- 8-|---5-3/5-55-4~X-6~X- 8-|
           ..   .   .              ..             .palm mute

d|-----------|
a|-----------|
F|-9-999-9-99|
C|-----------|	(background guitar)
G|-----------|
D|-----------|
A|-----------|

Verse:
d|-----------------------|-------------------------|
a|-----------------------|-------------------------|
F|-----------------------|-------------------------|
C|-----------------------|-------------------------|
G|-----------------------|-------------------------|
D|-7-7-5/7-77-8-8-5-5-10-|-7-7-5/7-77-10~-10-8-8-6-|
A|-5-5-3/5-55-6-6-3-3- 8-|-5-5-3/5-55- 8~- 8-6-6-4-|
           ..   .   .              ..      .   .     .palm mute

d|-----------------------|-----------------------|
a|-----------------------|-----------------------|
F|-----------------------|-----------------------|
C|-----------------------|-----------------------|
G|-----------------------|-----------------------|
D|-7-7-5/7-77-8-8-5-5-10-|---7-5/7-77-6~X-8~X-10-|
A|-5-5-3/5-55-6-6-3-3- 8-|---5-3/5-55-4~X-6~X- 8-|
           ..   .   .              ..             .palm mute

Verse-end:
d|----------------------------|
a|----------------------------|
F|----------------------------|
C|----------------------------|
G|----------------------------|
D|----------------------------|
A|-5--5h6r5r3-5-5h6r5r3-5-5-5-|

Pre-Chorus:
d|----------------------------|
a|----------------------------|
F|----------------------------|
C|----------------------------|
G|----------------------------|
D|-6-7-6-----6-7-6-----10~-7~-|
A|-------8-5-------8-5- 8~-5~-|

d|------------------------------|
a|------------------------------|
F|------------------------------|
C|-8-9-8------8-9-8-------------|
G|-------10-7-------10-7--------|
D|-----------------------10~-7~-|
A|----------------------- 8~-5~-|

Fill1:
d|---------------------|
a|---------------------|
F|---------------------|
C|---------------------|
G|---------------------|
D|-6-7-6-----6-7-6-----|
A|-------8-5-------8-5-|

d|-----------------------|
a|-----------------------|
F|-----------------------|
C|-8-9-8------8-9-8------|
G|-------10-7-------10-7-|
D|-----------------------|
A|-----------------------|

Chorus:
d|-----------------------|-------------------------|
a|-----------------------|-------------------------|
F|-----------------------|-------------------------|
C|-----------------------|-------------------------|
G|-----------------------|-------------------------|
D|-7-7-5/7-77-8-8-5-5-10-|-7-7-5/7-77-10~-10-8-8-6-|
A|-5-5-3/5-55-6-6-3-3- 8-|-5-5-3/5-55- 8~- 8-6-6-4-|
           ..   .   .              ..      .   .     .palm mute

d|-----------------------|
a|-----------------------|
F|-----------------------|
C|-----------------------|
G|-----------------------|
D|-7-7-5/7-77-8-8-5-5-10-|
A|-5-5-3/5-55-6-6-3-3- 8-|
           ..   .   .      .palm mute

d|-------------------------------------------|
a|-------------------------------------------|
F|-14~~13~~-(19~~)(17~~)-14~~-13~~-----------|
C|---------------------------------12~~-10~~-|	(background guitar)
G|-----------17~~--15~~~---------------------|
D|-------------------------------------------|
A|-------------------------------------------|

Verse: (with no lyrics)
d|-----------------------|-------------------------|
a|-----------------------|-------------------------|
F|-----------------------|-------------------------|
C|-----------------------|-------------------------|
G|-----------------------|-------------------------|
D|-7-7-5/7-77-8-8-5-5-10-|-7-7-5/7-77-10~-10-8-8-6-|
A|-5-5-3/5-55-6-6-3-3- 8-|-5-5-3/5-55- 8~- 8-6-6-4-|
           ..   .   .              ..      .   .     .palm mute
[ Tab from: http://www.guitartabs.cc/tabs/k/korn/hypocrites_tab_ver_3.html ]
d|-----------------------|-----------------------|
a|-----------------------|-----------------------|
F|-----------------------|-----------------------|
C|-----------------------|-----------------------|
G|-----------------------|-----------------------|
D|-7-7-5/7-77-8-8-5-5-10-|---7-5/7-77-6~X-8~X-10-|
A|-5-5-3/5-55-6-6-3-3- 8-|---5-3/5-55-4~X-6~X- 8-|
           ..   .   .              ..             .palm mute

Verse:
d|-----------------------|-------------------------|
a|-----------------------|-------------------------|
F|-----------------------|-------------------------|
C|-----------------------|-------------------------|
G|-----------------------|-------------------------|
D|-7-7-5/7-77-8-8-5-5-10-|-7-7-5/7-77-10~-10-8-8-6-|
A|-5-5-3/5-55-6-6-3-3- 8-|-5-5-3/5-55- 8~- 8-6-6-4-|
           ..   .   .              ..      .   .     .palm mute

d|-----------------------|-----------------------|
a|-----------------------|-----------------------|
F|-----------------------|-----------------------|
C|-----------------------|-----------------------|
G|-----------------------|-----------------------|
D|-7-7-5/7-77-8-8-5-5-10-|---7-5/7-77-6~X-8~X-10-|
A|-5-5-3/5-55-6-6-3-3- 8-|---5-3/5-55-4~X-6~X- 8-|
           ..   .   .              ..             .palm mute

Verse-end:
d|----------------------------|
a|----------------------------|
F|----------------------------|
C|----------------------------|
G|----------------------------|
D|----------------------------|
A|-5--5h6r5r3-5-5h6r5r3-5-5-5-|

Pre-Chorus:
d|----------------------------|
a|----------------------------|
F|----------------------------|
C|----------------------------|
G|----------------------------|
D|-6-7-6-----6-7-6-----10~-7~-|
A|-------8-5-------8-5- 8~-5~-|

d|------------------------------|
a|------------------------------|
F|------------------------------|
C|-8-9-8------8-9-8-------------|
G|-------10-7-------10-7--------|
D|-----------------------10~-7~-|
A|----------------------- 8~-5~-|

Fill1:
d|---------------------|
a|---------------------|
F|---------------------|
C|---------------------|
G|---------------------|
D|-6-7-6-----6-7-6-----|
A|-------8-5-------8-5-|

d|-----------------------|
a|-----------------------|
F|-----------------------|
C|-8-9-8------8-9-8------|
G|-------10-7-------10-7-|
D|-----------------------|
A|-----------------------|

Chorus:
d|-----------------------|-------------------------|
a|-----------------------|-------------------------|
F|-----------------------|-------------------------|
C|-----------------------|-------------------------|
G|-----------------------|-------------------------|
D|-7-7-5/7-77-8-8-5-5-10-|-7-7-5/7-77-10~-10-8-8-6-|
A|-5-5-3/5-55-6-6-3-3- 8-|-5-5-3/5-55- 8~- 8-6-6-4-|
           ..   .   .              ..      .   .     .palm mute

d|-----------------------|
a|-----------------------|
F|-----------------------|
C|-----------------------|
G|-----------------------|
D|-7-7-5/7-77-8-8-5-5-10-|
A|-5-5-3/5-55-6-6-3-3- 8-|
           ..   .   .      .palm mute

d|-------------------------------------------|
a|-------------------------------------------|
F|-14~~13~~-(19~~)(17~~)-14~~-13~~-----------|
C|---------------------------------12~~-10~~-|	(background guitar)
G|-----------17~~--15~~~---------------------|
D|-------------------------------------------|
A|-------------------------------------------|

Verse: (with no lyrics)
d|-----------------------|-------------------------|
a|-----------------------|-------------------------|
F|-----------------------|-------------------------|
C|-----------------------|-------------------------|
G|-----------------------|-------------------------|
D|-7-7-5/7-77-8-8-5-5-10-|-7-7-5/7-77-10~-10-8-8-6-|
A|-5-5-3/5-55-6-6-3-3- 8-|-5-5-3/5-55- 8~- 8-6-6-4-|
           ..   .   .              ..      .   .     .palm mute

d|-----------------------|-----------------------|
a|-----------------------|-----------------------|
F|-----------------------|-----------------------|
C|-----------------------|-----------------------|
G|-----------------------|-----------------------|
D|-7-7-5/7-77-8-8-5-5-10-|---7-5/7-77-6~X-8~X-10-|
A|-5-5-3/5-55-6-6-3-3- 8-|---5-3/5-55-4~X-6~X- 8-|
           ..   .   .              ..             .palm mute

Bridge:
d|------------------------------|
a|------------------------------|
F|------------------------------|
C|-8-9-8------8-9-8-------------|
G|-------10-7-------10-7--------|
D|-----------------------10~-7~-|
A|----------------------- 8~-5~-|

Pre-Chorus:
d|----------------------------|
a|----------------------------|
F|----------------------------|
C|----------------------------|
G|----------------------------|
D|-6-7-6-----6-7-6-----10~-7~-|
A|-------8-5-------8-5- 8~-5~-|

d|------------------------------|
a|------------------------------|
F|------------------------------|
C|-8-9-8------8-9-8-------------|
G|-------10-7-------10-7--------|
D|-----------------------10~-7~-|
A|----------------------- 8~-5~-|

d|-------------------------------------------|
a|-------------------------------------------|
F|-14~~13~~-(19~~)(17~~)-14~~-13~~-----------|
C|---------------------------------12~~-10~~-|	(background guitar)
G|-----------17~~--15~~~---------------------|
D|-------------------------------------------|
A|-------------------------------------------|

Verse:
d|-----------------------|-------------------------|
a|-----------------------|-------------------------|
F|-----------------------|-------------------------|
C|-----------------------|-------------------------|
G|-----------------------|-------------------------|
D|-7-7-5/7-77-8-8-5-5-10-|-7-7-5/7-77-10~-10-8-8-6-|
A|-5-5-3/5-55-6-6-3-3- 8-|-5-5-3/5-55- 8~- 8-6-6-4-|
           ..   .   .              ..      .   .     .palm mute

d|-----------------------|-----------------------|
a|-----------------------|-----------------------|
F|-----------------------|-----------------------|
C|-----------------------|-----------------------|
G|-----------------------|-----------------------|
D|-7-7-5/7-77-8-8-5-5-10-|---7-5/7-77-6~X-8~X-10-|
A|-5-5-3/5-55-6-6-3-3- 8-|---5-3/5-55-4~X-6~X- 8-|
           ..   .   .              ..             .palm mute

Outro:
d|-----------------------|-------------------------|
a|-----------------------|-------------------------|
F|-----------------------|-------------------------|
C|-----------------------|-------------------------|
G|-----------------------|-------------------------|
D|-7-7-5/7-77-8-8-5-5-10-|-7-7-5/7-77-10~-10-8-8-6-|
A|-5-5-3/5-55-6-6-3-3- 8-|-5-5-3/5-55- 8~- 8-6-6-4-|
           ..   .   .              ..      .   .     .palm mute

d|-----------------------|-----------------------|
a|-----------------------|-----------------------|
F|-----------------------|-----------------------|
C|-----------------------|-----------------------|
G|-----------------------|-----------------------|
D|-7-7-5/7-77-8-8-5-5-10-|---7-5/7-77-6~X-8~X-10-|
A|-5-5-3/5-55-6-6-3-3- 8-|---5-3/5-55-4~X-6~X- 8-|
           ..   .   .              ..             .palm mute

d|-------------------------------------------|
a|-------------------------------------------|
F|-14~~13~~-(19~~)(17~~)-14~~-13~~-----------|
C|---------------------------------12~~-10~~-|	(background guitar)
G|-----------17~~--15~~~---------------------|
D|-------------------------------------------|
A|-------------------------------------------|