Korn - Hypocrites Chords & Tabs

 

Hypocrites Chords & Tabs

Korn Chords & Tabs

Version: 1 Type: Bass Tab

Hypocrites Bass Tab

   
-------------------------------------------------------------------------------
			     HYPOCRITES - KoRn
-------------------------------------------------------------------------------

Tabbed By : KoRnKid89
e-mail: XblytheX89@aol.com

Tuning: ADGCF

  Intro pt. 1 ("Your messiah was never mine..."): No bass.

  Intro pt. 2 / Verse pt. 1:
F|-----------------------------|-----------------------------|
C|-----------------------------|-----------------------------|
G|-----------------------------|-----------------------------|
D|--0--0--0-0---0h1--1-0--0h3--|--0--0--0-0---0h1--1-0--0----|
A|-----------------------------|--------------------------3--|

F|-----------------------------|-----------------------------|
C|-----------------------------|-----------------------------|
G|-----------------------------|-----------------------------|
D|--0--0--0-0---0h1--1-0--0h3--|-----0--0-0---0h1--1-0--0h3--|
A|-----------------------------|-----------------------------|

  Verse pt. 2:
F|-----------------------------|-----------------------------|-----------------------------|
C|-----------------------------|-----------------------------|-----------------------------|
G|-----------------------------|-----------------------------|-----------------------------|
D|-----------------------------|-----------------------------|-----------------------------|
A|--5----6--5--6--5--(5)\------|--5----6--5--6--5555-(5)\----|--5----6--5--6--5------------|

F|-----------------------------|-----------------------------|----------------|
C|-----------------------------|-----------------------------|----------------|
G|-----------------------------|-----------------------------|----------------|
D|-----------------------------|-----------------------------|----------------|
A|--5----6--5--6--5--(5)\------|--5----6--5--6--5555-(5)\----|--5h6p5\--------|

  Pre-Chorus:
F|-------------------------------|     |------------------------|
C|-------------------------------|     |------------------------|
G|-------------------------------|     |------------------------|
D|--6h7p6------6h7p6-------------|     |--6h7p6------6h7p6------|
A|--------8-5--------8-5---8--5--|(x3) |--------8-5--------8-5--|
[ Tab from: http://www.guitartabs.cc/tabs/k/korn/hypocrites_btab.html ]
  Chorus pt. 1:
F|-----------------------------|-----------------------------|
C|-----------------------------|-----------------------------|
G|-----------------------------|-----------------------------|
D|--0--0--0-0---0h1--1-0--0h3--|--0--0--0-0---0h1--1-0--0----|
A|-----------------------------|--------------------------3--|

F|-----------------------------|
C|-----------------------------|
G|-----------------------------|
D|--0--0--0-0---0h1--1-0--0h3--|
A|-----------------------------|

  Chorus pt. 2:
F|-----------------------------|-----------------------------|
C|-----------------------------|-----------------------------|
G|-----------------------------|-----------------------------|
D|--0--0--0-0---0h1--1-0--0h3--|--0--0--0-0---0h1--1-0--0----|
A|-----------------------------|--------------------------3--|

F|-----------------------------|-----------------------------|
C|-----------------------------|-----------------------------|
G|-----------------------------|-----------------------------|
D|--0--0--0-0---0h1--1-0--0h3--|-----0--0-0---0h1--1-0--0h3--|
A|-----------------------------|-----------------------------|

  Bridge pt. 1: No bass.

  Bridge pt. 2:
F|-------------------------------|     |------------------------|
C|-------------------------------|     |------------------------|
G|-------------------------------|     |------------------------|
D|--6h7p6------6h7p6-------------|     |--6h7p6------6h7p6------|
A|--------8-5--------8-5---8--5--|(x3) |--------8-5--------8-5--|

  Final Chorus:
F|-----------------------------|-----------------------------|
C|-----------------------------|-----------------------------|
G|-----------------------------|-----------------------------|
D|--0--0--0-0---0h1--1-0--0h3--|--0--0--0-0---0h1--1-0--0----|
A|-----------------------------|--------------------------3--|

F|-----------------------------|-----------------------------|
C|-----------------------------|-----------------------------|
G|-----------------------------|-----------------------------|
D|--0--0--0-0---0h1--1-0--0h3--|-----0--0-0---0h1--1-0--0h3--|
A|-----------------------------|-----------------------------|



| P  pop
| S  slap
| /  slide up
| \  slide down
| h  hammer-on
| p  pull-off
| ~  vibrato
| +  harmonic
| x  Mute note
===============================================================================