Korn - Hollow Life Chords & Tabs

 

Hollow Life Chords & Tabs

Korn Chords & Tabs

Version: 1 Type: Tab 0 ratings
1 star 2 stars 3 stars 4 stars 5 stars
comments

Hollow Life Tab

this is correct i can guarantee you.

Seven string guitar down one whole step. (Low to high - A D G C F A D)

intro

Guitar 1
D|15--------------------14---------------------12--------------------------
A|-------------------------------------------------------------------------
F|-------------------------------------------------------------------------
C|-------------------------------------------------------------------------  x2
G|-------------------------------------------------------------------------
D|-------------------------------------------------------------------------
A|-------------------------------------------------------------------------
play this once then once again when guitar 2 enters

Guitar 2
D|-------------------------------------------------------------------------
A|-------------------------------------------------------------------------
F|-------------------------------------------------------------------------
C|-------------------------------------------------------------------------  x1
G|----7-----------------3---5----------------------7------------------3---5
D|5---5-----------------1---3------------------5---5------------------1---3
A|3--------------------------------------------3---------------------------


verse

Guitar 1
D|15--------------------14---------------------12--------------------------
A|-------------------------------------------------------------------------
F|-------------------------------------------------------------------------
C|-------------------------------------------------------------------------  x2
G|-------------------------------------------------------------------------
D|-------------------------------------------------------------------------
A|-------------------------------------------------------------------------

Guitar 2
D|-------------------------------------------------------------------------
A|-------------------------------------------------------------------------
F|-------------------------------------------------------------------------
C|-------------------------------------------------------------------------  x2
G|----7-----------------3---5----------------------7------------------3---5
D|5---5-----------------1---3------------------5---5------------------1---3
A|3--------------------------------------------3---------------------------

pre-chorus

Guitar 1
D|7------------7------------8------------10-------8
A|8------------8------------9------------11-------9
F|7------------7------------8------------10-------8
C|-------------------------------------------------  x2
G|-------------------------------------------------
D|-------------------------------------------------
A|-------------------------------------------------

Guitar 2
D|-------------------------------------------------
A|-------------------------------------------------
F|-------------------------------------------------
C|---------------------------------------3---------  x2
G|5---3---------------------5---3--------1--------3
D|3---1---3----3------------3---1---5-------------1
A|--------1----0--------------------3--------------

when jon keeps saying "lives" at the end you play:

Guitar 1
D|15--------------------14---------------------12--------------------------
A|-------------------------------------------------------------------------
F|-------------------------------------------------------------------------
C|-------------------------------------------------------------------------  x1
G|-------------------------------------------------------------------------
D|-------------------------------------------------------------------------
A|-------------------------------------------------------------------------

Guitar 2
D|-------------------------------------------------------------------------
A|-------------------------------------------------------------------------
F|-------------------------------------------------------------------------
C|-------------------------------------------------------------------------  x1
G|----7-----------------3---5----------------------7------------------3---5
D|5---5-----------------1---3------------------5---5------------------1---3
A|3--------------------------------------------3---------------------------
this is only done after the first pre-chorus. You ignore it for the 2nd and 3rd times

verse

Guitar 1
D|15--------------------14---------------------12--------------------------
A|-------------------------------------------------------------------------
F|-------------------------------------------------------------------------
C|-------------------------------------------------------------------------  x2
G|-------------------------------------------------------------------------
D|-------------------------------------------------------------------------
A|-------------------------------------------------------------------------
[ Tab from: http://www.guitartabs.cc/tabs/k/korn/hollow_life_tab.html ]
Guitar 2
D|-------------------------------------------------------------------------
A|-------------------------------------------------------------------------
F|-------------------------------------------------------------------------
C|-------------------------------------------------------------------------  x2
G|----7-----------------3---5----------------------7------------------3---5
D|5---5-----------------1---3------------------5---5------------------1---3
A|3--------------------------------------------3---------------------------

pre-chorus

Guitar 1
D|7------------7------------8------------10-------8
A|8------------8------------9------------11-------9
F|7------------7------------8------------10-------8
C|-------------------------------------------------  x2
G|-------------------------------------------------
D|-------------------------------------------------
A|-------------------------------------------------

Guitar 2
D|-------------------------------------------------
A|-------------------------------------------------
F|-------------------------------------------------
C|---------------------------------------3---------  x2
G|5---3---------------------5---3--------1--------3
D|3---1---3----3------------3---1---5-------------1
A|--------1----0--------------------3--------------

chorus

Guitar 1
D|5-----------------5-----------------5-----------------3------------
A|6-----------------5-----------------5-----------------3------------
F|7-----------------6-----------------5-----------------3------------
C|7-----------------7-----------------7-----------------5------------  x2
G|-------------------------------------------------------------------
D|-------------------------------------------------------------------
A|-------------------------------------------------------------------

Guitar 2
D|-------------------------------------------------------------------
A|-------------------------------------------------------------------
F|-------------------------------------------------------------------
C|-------------------------------------------------------------------  x2
G|-------------------------------------------------------------------
D|-------------------------------------------------------------------
A|1234------1234----0123-----0123-----1234------1234----0123-----0123

bridge

Guitar 1
D|5-----------------5-----------------5-----------------3------------
A|6-----------------5-----------------5-----------------3------------
F|7-----------------6-----------------5-----------------3------------
C|7-----------------7-----------------7-----------------5------------  x4
G|-------------------------------------------------------------------
D|-------------------------------------------------------------------
A|-------------------------------------------------------------------
only guitar 1 here

pre-chorus

Guitar 1
D|7------------7------------8------------10-------8
A|8------------8------------9------------11-------9
F|7------------7------------8------------10-------8
C|-------------------------------------------------  x2
G|-------------------------------------------------
D|-------------------------------------------------
A|-------------------------------------------------

Guitar 2
D|-------------------------------------------------
A|-------------------------------------------------
F|-------------------------------------------------
C|---------------------------------------3---------  x2
G|5---3---------------------5---3--------1--------3
D|3---1---3----3------------3---1---5-------------1
A|--------1----0--------------------3--------------

chorus

Guitar 1
D|5-----------------5-----------------5-----------------3------------
A|6-----------------5-----------------5-----------------3------------
F|7-----------------6-----------------5-----------------3------------
C|7-----------------7-----------------7-----------------5------------  x4
G|-------------------------------------------------------------------
D|-------------------------------------------------------------------
A|-------------------------------------------------------------------

Guitar 2
D|-------------------------------------------------------------------
A|-------------------------------------------------------------------
F|-------------------------------------------------------------------
C|-------------------------------------------------------------------  x4
G|-------------------------------------------------------------------
D|-------------------------------------------------------------------
A|1234------1234----0123-----0123-----1234------1234----0123-----0123

outro

Guitar 1
D|5-----------------5-----------------5-----------------3------------
A|6-----------------5-----------------5-----------------3------------
F|7-----------------6-----------------5-----------------3------------
C|7-----------------7-----------------7-----------------5------------  x1
G|-------------------------------------------------------------------
D|-------------------------------------------------------------------
A|-------------------------------------------------------------------
only guitar 1 here aswell

Well thats the whole song. It is right. Trust me!
Comments