Korn - Hey Daddy Chords & Tabs

 

Hey Daddy Chords & Tabs

Korn Chords & Tabs

Version: 1 Type: Tab 0 ratings
1 star 2 stars 3 stars 4 stars 5 stars
comments

Hey Daddy Tab

korn-hey daddy
album-issues
[ Tab from: http://www.guitartabs.cc/tabs/k/korn/hey_daddy_tab.html ]
Tuned Down One Half Whole Step (DGCFAd) 
  
(Intro And Verse) 
 
(Guitar 1) 
d ||--------------------------| 
A ||--------------------------| 
F ||--6--6--7--7--6--7--7--6--| 
C ||--6--6--7--7--6--7--7--6--| 
G ||--4--4--5--5--4--5--5--4--| 
D ||--------------------------|(Clean) 
  p.m ~ ~ ~ ~ ~ ~ ~ ~ ~ ~ ~ ~ 
 
(Guitar 2) 
d ||------------| 
A ||--6*--9--7--| 
F ||------------| 
C ||------------| 
G ||------------| 
D ||------------|(Whammy or Wah Effect) 
(note:*= Use Vibrato) 
 
(Chorus) 
d ||--------------------------| 
A ||--------------------------| 
F ||--6--6--6--6--6--7--7--7--| 
C ||--6--6--6--6--6--7--7--7--| 
G ||--4--4--4--4--4--5--5--5--| 
D ||--------------------------|(Heavy Distortion) 
 
 
(Bridge: Part Where Jon goes..."They say this  
thing inside me...")  
 
(Guitar 1) 
d ||--------------------| 
A ||--------------------| 
F ||-4--5---------------| 
C ||-4--5---------------| 
G ||-2--3---------------| 
D ||--------------------| 
p.m ~ ~ ~ ~ ~ ~ ~ ~ ~  
 
 
This Part uses these two chords as the are palm muted.. 
figuring out the rythym to this part isnt hard..just listen. 
 
(Guitar 2) 
d ||--------------------| 
A ||--12/13/12/13-------| 
F ||--------------------| 
C ||--------------------| 
G ||--------------------| 
D ||--------------------| 
 

Comments