Korn - Hey Daddy Chords & Tabs

 

Hey Daddy Chords & Tabs

Korn Chords & Tabs

Version: 1 Type: Bass Tab 0 ratings
1 star 2 stars 3 stars 4 stars 5 stars
comments

Hey Daddy Bass Tab

   
Band- Korn
Song- Hey Daddy

Intro
F|----6--------------6------------|
C|-------5----5/7------5----------|
G|-4--------6-----4---------------|
D|---------------------------2-3--|
A|------------------------22------|

F|----6-----------------------|
C|-------5----5/7---55-6667/8-|
G|-4--------6-----4-----------|
D|----------------------------|
A|----------------------------|

Verse I
F|----6--------------6---6\-|
C|-------5----5/7------5----|
G|-4--------6-----4---------|
D|--------------------------|
A|--------------------------|

F|----6-------------6------|
C|-------5------------5-66-|
G|-4------------4----------|
D|-------------------------|
A|---------22--------------|

F|----6-----------------6----------|
C|-------5----------------5-6667/8-|
G|-4-----------------4-------------|
D|------------2-3------------------|
A|---------22----------------------|

F|----6----------------6-5-|
C|-------55-888776---------|
G|-4-----------------4-----|
D|-------------------------|
A|-------------------------|

F|----6--------8-7-6-|
C|-------5-----------|
G|-4-------4/8-------|
D|-------------------|
A|-------------------|

F|-----------6\------6---------|
C|---------------------7766----|
G|-----------------4-------5/7-|
D|---2-3-555-------------------|
A|-2---------------------------|

F|----6-----------------6----3\-|
C|-------5----------------------|
G|-4-----------------4----44----|
D|------------2/3---------------|
A|---------22-------------------|

F|----6--------------6------|
C|-------5-5-----------5-66-|
G|-4---------------4--------|
D|--------------------------|
A|-----------2/3------------|

Chorus
F|----------------|
C|----------------|
G|----------------|
D|----------------|
A|-XXXX2-XX-X-X-3-|

Verse II
F|-6-------7/9----6---|
C|---5---5----------5-|
G|-----6--------4-----|
D|--------------------|
A|--------------------|

F|----6--------------6--------|
C|-------5----5/7------5------|
G|-4-------55------4----------|
D|----------------------------|
A|-----------------------XX-2-|
[ Tab from: http://www.guitartabs.cc/tabs/k/korn/hey_daddy_btab.html ]
F|----6--------------6-----|
C|-------5----5/7------5---|
G|-4-------55------4-------|
D|-------------------------|
A|-----------------------2-|

F|----6------------|
C|-------5-6667/8--|
G|-4---------------|
D|-----------------|
A|-----------------|

F|----6--------------6--------|
C|-------5----5/7-------------|
G|-4-------55------4---5-4----|
D|----------------------------|
A|-------------------------X2-|

F|----6---------------9---7/9\-|
C|-------5----5/7-------9------|
G|-4-------55------------------|
D|-----------------------------|
A|-----------------------------|

F|--------------------------|
C|--------------------66678-|
G|---------------4-5-5------|
D|-----2-3-5/6--------------|
A|-2-2----------------------|

F|----66--------------------------|
C|-------66----8-7-------555667-8-|
G|-4--------44--------4-----------|
D|--------------------------------|
A|--------------------------------|

Bridge
F|-4-4-4-4-5----4----4-4-4-4-5-4-4-4-|
C|-----------------------------------|
G|-----------------------------------|
D|-----------------------------------|
A|------------2---2------------------|

F|-4-4-4/5-4-4-4----4-4-4/5-4-4-4-|
C|--------------------------------|
G|--------------------------------|
D|--------------------------------|
A|--------------------------------|

Outro
F|---6-----7/9\-----6-----------|
C|-----5--------------5--6667/8-|
G|-4-------------4--------------|
D|------------------------------|
A|------------------------------|

F|---6---------------6-----------|
C|-----5--5/7\---------5---------|
G|-4-------------4-4-----------3-|
D|--------------------------2----|
A|----------------------222------|

F|-----6--------------6-----9---7\-|
C|-------5--5/7\--------5-0---0----|
G|-4-4-------------4-4-------------|
D|---------------------------------|
A|---------------------------------|

F|-----6--------------------6/7\-|
C|-------5-----------------------|
G|-4-4------------3--------------|
D|-------------2--------2/3------|
A|---------222-------XX----------|

F|----6-----------------6------------|
C|-------5----------------5--6667/8\-|
G|-4-----------------4---------------|
D|----------2------------------------|
A|------------3----------------------|

For Intro, verses and outro use a fat distortion.
Comments