Korn - Here To Stay Chords & Tabs

 

Here To Stay Chords & Tabs

Korn Chords & Tabs

Version: 9 Type: Tab 0 ratings
1 star 2 stars 3 stars 4 stars 5 stars
comments

Here To Stay Tab

   
Tuning - A D G C F A D
Played on a 7 string (well duh) so no abuse about it being tabbed for a 7.. fankoo

*Intro
D-----------------------------------------------------------
A-----------------------------------------------------------
F-----------------------------------------------------------
C-----------------------------------------------------------
G-----------------------------------------------------------
D--2----3-------2222222-------4-----------------------------
A--0----1-------0000000-------2-----------------------------   X4

*Play intro very distorted with a phase shifter or some kind of phaser pedal

D-----------------------------------------------------------
A-----------------------------------------------------------
F-----------------------------------------------------------
C-----------------------------------------------------------
G--2----3-------2222----------4-----------------------------
D--2----3-------2222----------4-----------------------------
A--0----1-------0000----------2-----------------------------   X8  

D-----------------------------------------------------------
A-----------------------------------------------------------
F-----------------------------------------------------------
C-----------------------------------------------------------
G--7----8------77777-----------13---------------------------
D--7----8------77777-----------13---------------------------
A--5----6------55555-----------11---------------------------  X12

D-----------------------------------------------
A-----------------------------------------------
F-----------------------------------------------
C-----------------------------------------------
G---9-----------------4444444-------------------
D---9-----------------4444444-------------------
A---7-----------------2222222-------------------       X4


D-------------------------------------------------------
A-------------------------------------------------------
F-------------------------------------------------------
C-------------------------------------------------------
G--2----5----7--------9---5-----------------------------
D--2----5----7--------9---5-----------------------------
A--0----3----5--------7---3-----------------------------      X4

D-----------------------------------------------------------
A-----------------------------------------------------------
F-----------------------------------------------------------
C-----------------------------------------------------------
G--7----8------77777-----------13---------------------------
D--7----8------77777-----------13---------------------------
A--5----6------55555-----------11---------------------------  X8

D-----------------------------------------------
A-----------------------------------------------
F-----------------------------------------------
C-----------------------------------------------
G---9-----------------4444444-------------------
D---9-----------------4444444-------------------
A---7-----------------2222222-------------------         X4
[ Tab from: http://www.guitartabs.cc/tabs/k/korn/here_to_stay_tab_ver_9.html ]
D-------------------------------------------------------
A-------------------------------------------------------
F-------------------------------------------------------
C-------------------------------------------------------
G--2----5----7--------9---5-----------------------------
D--2----5----7--------9---5-----------------------------
A--0----3----5--------7---3-----------------------------     X4

Aprego part = god knows

D---------------------------------------
A---------------------------------------
F---------------------------------------
C---------------------------------------
G---22222222-----33333333---------------
D---22222222-----33333333---------------
A---00000000-----11111111---------------   X4

*This part is palm-muted


D---------------------------------------
A---------------------------------------
F---------------------------------------
C---------------------------------------
G---22222222-----33333333---------------
D---22222222-----33333333---------------
A---00000000-----11111111---------------  X4


D-----------------------------------------------------------
A-----------------------------------------------------------
F-----------------------------------------------------------
C-----------------------------------------------------------
G--7----8------77777-----------13---------------------------
D--7----8------77777-----------13---------------------------
A--5----6------55555-----------11---------------------------    X2

D-----------------------------------------------
A-----------------------------------------------
F-----------------------------------------------
C-----------------------------------------------
G---9-----------------4444444-------------------
D---9-----------------4444444-------------------
A---7-----------------2222222-------------------   X4


D-------------------------------------------------------
A-------------------------------------------------------
F-------------------------------------------------------
C-------------------------------------------------------
G--2----5----7--------9---5-----------------------------
D--2----5----7--------9---5-----------------------------
A--0----3----5--------7---3-----------------------------   X4


D-----------------------------------------------------------
A-----------------------------------------------------------
F-----------------------------------------------------------
C-----------------------------------------------------------
G--2----3-------2222----------4-----------------------------
D--2----3-------2222----------4-----------------------------
A--0----1-------0000----------2-----------------------------   X8


D----------------------13^-----------------------14^--------
A-----------------------------------------------------------
F-----------------------------------------------------------
C-----------------------------------------------------------
G---22222222-----------------22222222-----------------------
D---22222222-----------------22222222-----------------------
A---00000000-----------------00000000-----------------------   X4

*For the final part use Flanger pedal
Comments