Korn - Here To Stay Chords & Tabs

 

Here To Stay Chords & Tabs

Korn Chords & Tabs

Version: 3 Type: Tab 6 ratings
1 star 2 stars 3 stars 4 stars 5 stars
comments

Here To Stay Tab

Song: Korn - Here to Stay
Tabbed By: Nick Coulter

There is some heavy flanger parts I didn't tab out (I figured this out on a 6-
string acoustic in standard tunning, give me a break!

7 STRING GUITARS TUNED DOWN 1 WHOLE STEP (ADGCFAD)

Gtr I - 'Gtr. 1 (elec. w/dist. and whammy pedal*)'
Gtr II - 'Gtr. 1 (elec. w/dist.)'
Gtr III - 'Gtr. 2 (elec. w/dist.)'

H: Half note/half rest 
Q: Quarter note/quarter rest
E: Eigth note/eigth rest
S: Sixteenth note/sixteenth rest


Intro:
  Gtr I (*whammy pedal makes sound 1 octave lower)
  Q  Q  S S S S S S E   Q  Q  S S S S S S E
|---------------------|---------------------|
|---------------------|---------------------|
|---------------------|---------------------|
|---------------------|---------------------|
|---------------------|---------------------|
|---------------------|---------------------|
|-0--1--0-3-2-0-1-0-2-|-0--1--0-3-2-0-1-0-2-|


  Q  Q  S S S S S S E   Q  Q  S S S S S E S
|---------------------|---------------------|
|---------------------|---------------------|
|---------------------|---------------------|
|---------------------|---------------------|
|---------------------|---------------------|
|---------------------|---------------------|
|-0--1--0-3-2-0-1-0-2-|-0--1--0-3-2-0-1-----|
[ Tab from: http://www.guitartabs.cc/tabs/k/korn/here_to_stay_tab_ver_3.html ]
Main Riff:
  Gtrs II, III
  Q  Q  S S S S S S E   Q  Q  S S S S S S E
|---------------------|---------------------|
|---------------------|---------------------|
|---------------------|---------------------|
|---------------------|---------------------|
|---------------------|---------------------|
|---------------------|---------------------|
|-0--1--0-3-2-0-1-0-2-|-0--1--0-3-2-0-1-0-2-|

Verse:
  Q  Q  S S S S S S E   Q  Q  S S S S S S E
|---------------------|---------------------|
|---------------------|---------------------|
|---------------------|---------------------|
|---------------------|---------------------|
|-------------------2-|-------------------2-|
|-0--1--0-3-2-0-1-0---|-0--1--0-3-2-0-1-0---|
|---------------------|---------------------|

Pre-chorus:
  Q  Q  S S S S S S E   Q  Q  S S S S S S E
|---------------------|---------------------|
|---------------------|---------------------|
|---------------------|---------------------|
|---------------------|---------------------|
|---------------------|---------------------|
|-3-------------------|---------------------|
|----1--0-3-2-0-1-0-2-|-0--1--0-3-2-0-1-0-2-|

Chorus:
  H    H      Q  Q  Q  Q    H    H      Q  Q  Q  Q
|-----------|-------------|-----------|-------------|
|-----------|-------------|-----------|-------------|
|-----------|-------------|-----------|-------------|
|-----------|-5-----------|-----------|-5-----------|
|-2----5----|-5--5--7--3--|-2----5----|-5--5--7--3--|
|-2----5----|-3--5--7--3--|-2----5----|-3--5--7--3--|
|-0----3----|----3--5--1--|-0----3----|----3--5--1--|

Interlude/Outro:
  PM--------------|        PM------------|
  E E S S S S S S S Q  S   E E S S E S S S Q  S
|------------------------|----------------------|
|------------------------|----------------------|
|------------------------|----------------------|
|------------------------|----------------------|
|------------------------|----------------------|
|-----7------------------|-----7----------------|
|-0-0---0---0-0-0-0------|-0-0---0---0-0-0------|



Comments