Korn - Here To Stay Chords & Tabs

 

Here To Stay Chords & Tabs

Korn Chords & Tabs

Version: 18 Type: Tab 0 ratings
1 star 2 stars 3 stars 4 stars 5 stars
comments

Here To Stay Tab

   
This is to all the peoples tabs 've seen about this song that were wrong
This one's right i know it, I've seen all their stuff on DVD's "Hammerstein"
and "CBGB's" and including this song, it's my favorite one but anywayzz let's
begin, shall we??....
Okay now the tuning is one full step down : A D G C F A D
Gtr1= Brian "Head"Welch   Gtr2= James "Munk" Shaffer


  Intro: Gtr2 (w/Dist.)     (3x)             (1x)
D|-----------------------------|----------------|
A|-----------------------------|----------------|
F|-----------------------------|----------------|
C|-----------------------------|----------------|
G|-----------------------------|----------------|
D|-----------------------------|----------------|
A|-0-----1-----0-3-2-1-0-1-2-|-0-1--0-3-2-1-0---|

  Heavy Intro: Gtr1+2 (w/Dist.)(8x)
D|---------------------------|
A|---------------------------|
F|---------------------------|
C|---------------------------|
G|---------------------------|
D|---------------------------|
A|-0-----1-----0-3-2-1-0-1-2-|

  Verse1: Gtr1+2  (w/Dist.)       (whole thing 8x)
D|-----------------------|-----------------------|
A|-----------------------|-----------------------|
F|-----------------------|-----------------------|
C|-----------------------|-----------------------|
G|-----------------------|-----------------------|
D|-------------------7---|-------------------6---|
A|-5--6--5-8-6-5-5-6-----|-5--6--5-8-6-5-5-6-----|

  Pre-Chorus: Gtr1+2 (w/Dist.)    (whole thing 2x)
D|-----------------------|-----------------------|
A|-----------------------|-----------------------|
F|-----------------------|-----------------------|
C|-----------------------|-----------------------|
G|-----------------------|-----------------------|
D|-3---------------------|-3---------------------|
A|---2-0-2-3-2-0-2-0-2---|--2--2-0-2-3-0-2-0-2---|

  Chorus: Gtr2 (w/Dist.)                (whole thing 2x)
D|------------|-------------|------------|-------------|
A|------------|-------------|------------|-------------|
F|------------|-------------|------------|-------------|
C|------------|-5---2-2-----|------------|-5-5-2-------|
G|-2------5---|-5-5-2-2-3-3-|-2------5---|-5-5-2-3-----|
D|-2------5---|-3-5-0-0-3-3-|-2------5---|-3-5-0-3-----|
A|-0------3---|---3-----1-1-|-0------3---|---3---1-----|

  Chorus: Gtr1 (w/delay/Dist.) (whole thing 2x)
D|--------------------|-----------------------|
A|--------------------|-----------------------|                            
F|-18-16--20-22-24----|-18-16--16-13-14-11----|
C|--X--X---X--X--X----|--X--X---X--X--X--X----|
G|-16-14--18-20-22----|-16-14--14-11-12--9----|
D|--------------------|-----------------------|
A|--------------------|-----------------------|

  Interlude: Gtr1
D|--------------------|--------------------|
A|--------------------|--------------------|
F|---18--18--16--16---|---20--20--22--24---|
C|--------------------|--------------------|
G|-16--16--14--14-----|-18--18--20--22-----|
D|--------------------|--------------------|
A|--------------------|--------------------|

D|--------------------|--------------------|
A|--------------------|--------------------|
F|---18--18--16--16---|---16--13--14--11---|
C|--------------------|--------------------|
G|-16--16--14--14-----|-14--11--12---9-----|
D|--------------------|--------------------|
A|--------------------|--------------------|

D|--------------------|--------------------|
A|--------------------|--------------------|
F|---18--18--16--16---|---20--20--22--24---|
C|--------------------|--------------------|
G|-16--16--14--14-----|-18--18--20--22-----|
D|--------------------|--------------------|
A|--------------------|--------------------|
[ Tab from: http://www.guitartabs.cc/tabs/k/korn/here_to_stay_tab_ver_18.html ]
D|--------------------|--------------------|
A|--------------------|--------------------|
F|---18--18--16--16---|---18--20--22--24---|
C|--------------------|--------------------|
G|-16--16--14--14-----|-16--18--20--22-----|
D|--------------------|--------------------|
A|--------------------|--------------------|

  Interlude2: Gtr1                             (whole thing 2x)
D|-------------------------------|----------------------------|
A|-------------------------------|----------------------------|
F|-------------------------------|----------------------------|
C|-21--21--21-21--21-21-21-21-22-|-21--21--21-21--21-21-21-19-|
G|-------------------------------|----------------------------|
D|-------------------------------|----------------------------|
A|-------------------------------|----------------------------|

D|-------------------------------|----------------------------|
A|-------------------------------|----------------------------|
F|-------------------------------|----------------------------|
C|-21--21--21-21--21-21-21-21-22-|-21--21--21-21--21-21-21----|
G|-------------------------------|------------------------22--|
D|-------------------------------|----------------------------|
A|-------------------------------|----------------------------|

  Interlude: Gtr2 (play while Gtr1 plays interlude2)
D|---------------------------|-------------------|
A|---------------------------|-------------------|
F|---------------------------|-------------------|
C|---------------------------|-------------------|
G|---------------------------|-------------------|
D|---------------------------|-------------------|
A|-0--0----9--0----0-0-0-0---|-0-0--9-0--0-0-0---|

  Heavy Bridge: Gtr1+2 (w/HeavyDist.)
D|-------------------------------|-----------------------------|
A|-------------------------------|-----------------------------|
F|-------------------------------|-----------------------------|
C|-------------------------------|-----------------------------|
G|----------------------11//14---|--------------------11//13---|
D|-----------------------X//-X---|---------------------X//-X---|
A|-0-0--9--0----0-0-0-0--9//12---|-0-0--9--0----0-0-0--9//11---|

  Outro: Gtr2
D|-----------------------|---------------------|
A|-----------------------|---------------------|
F|-----------------------|---------------------|
C|-----------------------|---------------------|
G|-----------------------|---------------------|
D|-----------------------|---------------------|
A|-0--0--9--0----0-0-0-0-|-0-0--9--0---0-0-0---|

  Outro: Gtr 1 (w/flanger + pitch shifter) 
D|--------------------------------------------------|
A|--------------------------------------------------|
F|-16-16-16-16-16-16-16-16-16-16-16-16-17-17-17-17--|
C|--------------------------------------------------|
G|-14-14-14-14-14-14-14-14-14-14-14-14-15-15-15-15--|
D|--------------------------------------------------|
A|--------------------------------------------------|

  (continued)                                 (w/bar)
D|--------------------------------------------------|
A|--------------------------------------------------|
F|-16-16-16-16-16-16-16-16-16-16-16-16-17-17-17(17)-|
C|--------------------------------------------------|
G|-14-14-14-14-14-14-14-14-14-14-14-14-15-15-15(15)-|
D|--------------------------------------------------|
A|--------------------------------------------------|

  (Then)                                      (w/bar)
D|--------------------------------------------------|
A|--------------------------------------------------|
F|-16-16-16-16-16-16-16-16-16-16-16(16)-------------|
C|--------------------------------------------------|
G|-14-14-14-14-14-14-14-14-14-14-14(14)-------------|
D|--------------------------------------------------|
A|--------------------------------------------------|

Now that's it then, listen to the song for timing and playing.
Godd Luck ya'll......Greetzz Sir Headly...............
Comments