Korn - Here To Stay Chords & Tabs

 

Here To Stay Chords & Tabs

Korn Chords & Tabs

Version: 15 Type: Tab 0 ratings
1 star 2 stars 3 stars 4 stars 5 stars
comments

Here To Stay Tab

   
Intro (With loads of distortion)
e|---------------------------------------------------------------------------|
B|---------------------------------------------------------------------------|
G|---------------------------------------------------------------------------|
D|--5~~~~5~~~~5~~~~5~~~~5~~~~5~~~~5~~~~5~~~~---------------------------------|
A|--5~~~~5~~~~5~~~~5~~~~5~~~~5~~~~5~~~~5~~~~(palm mute all strings)----------|
E|--4~~~~4~~~~4~~~~4~~~~4~~~~4~~~~4~~~~4~~~~---------------------------------|

Riff 1
e|----------------------|
B|----------------------|
G|----------------------|
D|-3--------------------|  
A|-3-3--3-3-3-3-3-3-3---|
E|-3-4--3-5-3-4-4-3-6---|

Verse
e|--------------------------------------------|
B|--------------------------------------------|
G|--------------------------------------------|
D|-6---------------------6--------------------| 
A|-6-6--6-6-6-6-6-6-6----6-6--6-6-6-6-6-6-6---|
E|-6-7--6-8-6-7-7-6-9----6-7--6-8-6-7-7-6-8---|

Pre chorus
e|------------------|
B|------------------|
G|------------------|
D|------------------| 
A|-5--0-0-0-0-0-0---|
E|-5--0-0-0-0-0-0---|
[ Tab from: http://www.guitartabs.cc/tabs/k/korn/here_to_stay_tab_ver_15.html ]
Chorus
e|------------------|
B|------------------|
G|------------------|
D|-2--5---5-5--3-3--| 
A|-2--5---3-5--1-3--|
E|-0--3---3-3--1-1--|

Solo part1
e|----------------------------------------------------------------|
B|----------------------------------------------------------------|
G|-13--12--13-12-14-15---13-12--12-11-11-10---13--12--13-12-14-15-|
D|----------------------------------------------------------------|
A|----------------------------------------------------------------|
E|----------------------------------------------------------------|
Solo part2
e|---------------------|
B|---------------------|
G|-13--12--13-12-14-15-|
D|---------------------|
A|---------------------|
E|---------------------|

Riff 2
e|--------------------|
B|--------------------|
G|--------------------|
D|--------------------| 
A|--------------------|
E|-0-0-12-0--0-0-0-0--|

Outro
e|-------|
B|-------|
G|-------|
D|-------|
A|-------|
E|-12\9~-|

Riff 1 x8
Verse x6
Pre chorus x4
Chorus x4
Verse x4
Pre chorus x4
Chorus x4
Solo part1 x1
Solo part2 x1
Riff 2 x16
Verse x1
Pre chorus x4
Chorus x4
Riff 1 x8
Riff 2 x8 
Outro x1

| /  slide up
| \  slide down
| h  hammer-on
| p  pull-off
| ~  vibrato
| +  harmonic
| x  Mute note
Comments