Korn - Here To Stay Chords & Tabs

 

Here To Stay Chords & Tabs

Korn Chords & Tabs

Version: 11 Type: Tab 0 ratings
1 star 2 stars 3 stars 4 stars 5 stars
comments

Here To Stay Tab

   
Korn - Here To Stay

Tune: A,D,G,C,F,A,D [1 Whole Step]

Effects: Digitech XP-100
         Electro-Harmonix Big Muff Pi
         Boss CE-5 Chorus Ensemble
	   Boss RV-3 Digital/Reverb

Key:	 p - Pull-Off
       x - Mute/Pick Scrape
	 / - Slide
       P.M.- Palm Mute

Intro: w/XP-100, Big Muff Pi
D|--------------------------|-----------------------|
A|--------------------------|-----------------------|
F|--------------------------|-----------------------|
C|--------------------------|-----------------------|
G|------------------------3-|-----------------------|
D|--------------------------|-----------------------|
A|--0--1---2-3-2-1-2-1-0----|-0--1---2-3-2-1-2-1-0--|

D|------------------------|------------------------|
A|------------------------|------------------------|
F|------------------------|------------------------|
C|------------------------|------------------------|
G|------------------------|--2--3------------------|
D|--2--3------------------|--0--1---2-3-2-1-2-1p0--|
A|--0--1---2-3-2-1-2-1p0--|------------------------|
P.M.      [-------------]          [-------------]

Verse:
D|------------------------|
A|------------------------|
F|------------------------|
C|------------------------|
G|--2--3------------------|
D|--0--1---2-3-2-1-2-1p0--|
A|------------------------|
P.M.      [-------------]

D|--------------------------------------------|
A|--------------------------------------------|
F|--------------------------------------------|
C|--5-----------------------------------------|
G|--5--5--------------------------------------|
D|--3--5--4-5-4-3-4-3-2--3----4--5-4-3-4-3-2--|
A|-----3--2-3-2-1-2-1-0----3--2--3-2-1-2-1-0--|

Chorus:

Munky:
D|-----------------------|
A|-----------------------|
F|-----------------------|
C|-----------5-----2-----|
G|--2---5----5--5--2--3--|
D|--2---5----3--5--0--3--|
A|--0---3-------3-----1--|

Head: w/XP-100
D|--------------------------|-----------14---------|
A|--------------------------|-----------x----------|
F|--16--14---19--21--23-24--|--16--14---11--11--9--|
C|--x---x----x---x---x--x---|--x---x---------x--x--|
G|--14--12---17--19--21-22--|--14--12--------9--7--|
D|--------------------------|----------------------|
A|--------------------------|----------------------|

Interlude:

Munky:		Head:
D|----------|   D|-----------|
A|----------|	A|-----------|
F|----------|	F|-----------|
C|----------|	C|-----------|
G|--9-------|	G|--2--------|
D|--7-------|	D|--2--------|
A|--0-------|	A|--0--------|

Head: w/XP-100, RV-3, and CE-5
D|---------------------------------------------|
A|---------------------------------------------|
F|-----16----14----14----19----19----21----23--|
C|---------------------------------------------|
G|--14----12----12----17----17----19----21-----|
D|---------------------------------------------|
A|---------------------------------------------|
[ Tab from: http://www.guitartabs.cc/tabs/k/korn/here_to_stay_tab_ver_11.html ]
Head: w/XP-100, RV-3, and CE-5
D|------------------------------------------------|
A|------------------------------------------------|
F|-----16----16----14----14----14---11----12---9--|
C|------------------------------------------------|
G|--14----14----12----12----12----9----10----7----|
D|------------------------------------------------|
A|------------------------------------------------|

Munky: w/RV-3, and Small Stone
D|--xx---------------|
A|--------x---x--xx--|
F|-------------------|
C|-------------------|
G|-------------------|
D|-------------------|
A|-------------------|

Head: W/RV-3, and CE-5
D|-----------7------|
A|-------0----------|
F|--4---------------|
C|------------------|
G|------------------|
D|------------------|
A|------------------|

Munky:
D|-----------------|
A|-----------------|
F|-----------------|
C|-----------------|
G|-----------------|
D|-------7---------|
A|--0--0---0--000--|
P.M. throughout

Head & Munky:
D|--------------------|
A|--------------------|
F|--------------------|
C|--------------------|
G|-------9------------|
D|-------7--------7/9-|
A|--0--0---0--000-----|

D|------------------------|
A|------------------------|
F|------------------------|
C|------------------------|
G|--2--3------------------|
D|--0--1---2-3-2-1-2-1p0--|
A|------------------------|
P.M.      [-------------]

D|--------------------------------------------|
A|--------------------------------------------|
F|--------------------------------------------|
C|--5-----------------------------------------|
G|--5--5--------------------------------------|
D|--3--5--4-5-4-3-4-3-2--3----4--5-4-3-4-3-2--|
A|-----3--2-3-2-1-2-1-0----3--2--3-2-1-2-1-0--|

Chorus:
D|-----------------------|
A|-----------------------|
F|-----------------------|
C|-----------5-----2-----|
G|--2---5----5--5--2--3--|
D|--2---5----3--5--0--3--|
A|--0---3-------3-----1--|

D|--------------------------|-----------14---------|
A|--------------------------|-----------x----------|
F|--16--14---19--21--23-24--|--16--14---11--11--9--|
C|--x---x----x---x---x--x---|--x---x---------x--x--|
G|--14--12---17--19--21-22--|--14--12--------9--7--|
D|--------------------------|----------------------|
A|--------------------------|----------------------|

Ch2: 
Munky:
D|------------------------|
A|------------------------|
F|------------------------|
C|------------------------|
G|------------------------|
D|--2--3---4-5-4-3-4-3-2--|
A|--0--1---2-3-2-1-2-1-0--|

Head: w/ XP-100
D|--------------------------|-----------14---------|
A|--------------------------|-----------x----------|
F|--16--14---19--21--23-24--|--16--14---11--11--9--|
C|--x---x----x---x---x--x---|--x---x---------x--x--|
G|--14--12---17--19--21-22--|--14--12--------9--7--|
D|--------------------------|----------------------|
A|--------------------------|----------------------|


This was done by someone i know called mark, i am very grateful and so should you be as is sounds dammed right!
Comments