Korn - Here To Stay Chords & Tabs

 

Here To Stay Chords & Tabs

Korn Chords & Tabs

Version: 1 Type: Tab 1 rating
1 star 2 stars 3 stars 4 stars 5 stars
comments

Here To Stay Tab

i am so pissed that u fux couldnt tab this trak right
i joined this shit just to tabb this one song
and its 100% fukin rite K.

7 sting guitars tuned - ADADGBE
They mite tune difrint but its a hole lot ez-er 2 play it this way

Intro + Main Riff
|--------------------------|-------------------------|
|--------------------------|-------------------------|
|--------------------------|-------------------------|
|--------------------------|-------------------------|
|--------------------------|-------------------------|
|--------------------------|-------------------------|
|-0--1--0-3-1-0-1-0-3------|-0--1--0-3-1-0-1-0-3-----|

Verse
|--------------------------|-------------------------|
|--------------------------|-------------------------|
|--------------------------|-------------------------|
|--------------------------|-------------------------|
|-----------------------0--|-------------------------|
|-0--1--0-3-1-0-1-0--------|-0--1--0-3-1-0-1-0-6-----|
|--------------------------|-------------------------|
[ Tab from: http://www.guitartabs.cc/tabs/k/korn/here_to_stay_tab.html ]
Pre Korus
|--------------------------|-------------------------|
|--------------------------|-------------------------|
|--------------------------|-------------------------|
|--------------------------|-------------------------|
|--------------------------|-------------------------|
|--3-----------------------|-3-----------------------|
|----0-1-0-3-1-0-1-0-3-----|---0-1-0-3-1-0-1-0-3-----|

Korus 
(they mite do power kords, so use these notes as the roots)
|--------------------------|-------------------------|
|--------------------------|-------------------------|
|--------------------------|-------------------------|
|--------------------------|-------------------------|
|--------------------------|-------------------------|
|------------3-----0-------|------------3-----0------|
|-0-----3------3------1----|-0-----3------3------1---|

Brige + Outro
   PM------------------|     PM-------------------|
|--------------------------|-------------------------|
|--------------------------|-------------------------|
|--------------------------|-------------------------|
|--------------------------|-------------------------|
|--------------------------|-------------------------|
|--------------------------|-------------------------|
|--0-0--0-0000-------------|--0-0--0--000------------|
Comments