Korn - Here To Stay Chords & Tabs

 

Here To Stay Chords & Tabs

Korn Chords & Tabs

Version: 6 Type: Bass Tab 0 ratings
1 star 2 stars 3 stars 4 stars 5 stars
comments

Here To Stay Bass Tab

   
-------------------------------------------------------------------------------
			     HERE TO STAY - KoRn
-------------------------------------------------------------------------------

Tabbed By : KoRnKid89
e-mail: XblytheX89@aol.com

Tuning: ADGCF


  Intro pt. 1 (come in after guitar intro):
    S  S              S
F|-----------------------|
C|-----------------------|
G|-----------------------|
D|-----------------------|
A|--0--1--0-3-1-0-0-0-2--| (x8)


  Intro pt. 2 / Verse:
    S  S              P     S  S              P
F|-----------------------|-----------------------|
C|-----------------------|-----------------------|
G|--------------------2--|--------------------1--|
D|--0--1--0-3-1-0-0-0----|--0--1--0-3-1-0-0-0----|
A|-----------------------|-----------------------|
  (Intro: x2; Verse: x4)


  Pre-Chorus:
    P   S  S S S  S S S S     P     S S S  S S S S
F|-------------------------|------------------------|
C|-------------------------|------------------------|
G|-------------------------|------------------------|
D|--2----------------------|--2---------------------|
A|------2--0-2-3--0-2-3-2--|----2---0-2-3--0-2-3-2--| (x2)


  Chorus / Bridge pt. 1:
F|------------------------|
C|------------------------|
G|------------------------|
D|------------3-----0-----|
A|--0----3-------3-----1--| (x4)
  
[ Tab from: http://www.guitartabs.cc/tabs/k/korn/here_to_stay_btab_ver_6.html ]
  Bridge pt. 2 (slap all):             
F|------------------------|
C|------------------------|
G|------------------------|
D|------------------------|
A|-----------X-X-X-X-X-X--| (x4)
     
F|---------------------------------|
C|---------------------------------|
G|---------------------------------|
D|---------------------------------|
A|-X-X-X-X-X-X-X-X-X-X-X-X-X-X-X-X-| (x3)

F|---------------------------------|
C|---------------------------------|
G|---------------------------------|
D|---------------------------------|
A|-X-X-X-X-X-X-X-X-X---------------|


  Bridge pt. 3:
    S S       S S S    S S       S S S    S S      SS S S    S S       S S S
F|------------------|------------------|------------------|------------------|
C|------------------|------------------|------------------|------------------|
G|------------------|------------------|------------------|------------------|
D|------7-----------|------7-----------|------7-----------|------7-----------|
A|--0-0--0----0-0-0-|--0-0--0----0-0-0-|--0-0--0---00-0-0-|--0-0--0----0-0-0-|


  Intro to final chorus:
    S  S              P     S  S              P
F|-----------------------|-----------------------|
C|-----------------------|-----------------------|
G|--------------------2--|--------------------1--|
D|--0--1--0-3-1-0-0-0----|--0--1--0-3-1-0-0-0----|
A|-----------------------|-----------------------|


  Outro pt. 1:
    S  S              S
F|-----------------------|
C|-----------------------|
G|-----------------------|
D|-----------------------|
A|--0--1--0-3-1-0-0-0-2--| (x8)

  Outro pt. 2:
F|-------------------|-------------------|
C|-------------------|-------------------|
G|-------------------|-------------------|
D|------7------------|------7------------|
A|--0-0--0---00-0-0--|--0-0--0----0-0-0--| (x4)


| P  pop
| S  slap
| /  slide up
| \  slide down
| h  hammer-on
| p  pull-off
| ~  vibrato
| +  harmonic
| x  Mute note
===============================================================================
Comments