Korn - Here To Stay Chords & Tabs

 

Here To Stay Chords & Tabs

Korn Chords & Tabs

Version: 5 Type: Bass Tab 0 ratings
1 star 2 stars 3 stars 4 stars 5 stars
comments

Here To Stay Bass Tab

Artist: Korn
Song: Here To Stay
Album: Untouchables
Tabbed By: Mathias

intro              verse
[------------------------------
[------------------------------
[------------------------------
[-0--1--232323----3--4--565656-
                  This part is the change in sound

prechorus
[-------------------------------
[-------------------------------
[-------------------------------
[-0--1-1-1-1-1-1-0--1-1-1-1-1-1-
"This state is animating.."
[ Tab from: http://www.guitartabs.cc/tabs/k/korn/here_to_stay_btab_ver_5.html ]
chorus (play with Munkey)
[---------------------------------
[---------------------------------
[---------------------------------
[--5---3---5-6-7--5---3---1-0-2-2-
Also play this this at the guitar solo thing part is going

bridge pt. 1
[----------------------------
[----------------------------
[----------------------------
[--555---555---5555555555555-
This played in Munkey's spaces. Eventually it just starts to be played all at once.
It is the "I'm here to stay" part.

bridge pt. 2
[-----------------------------------
[-----------------------------------
[-----------------------------------
[-0-0-0-0-000-0/12-0-0-0-0-000-0/12-

outro
[-----------------------------
[-----------------------------
[-----------------------------
[-0-0-0-0-000-----0-0-0-0-000-

If any comments contact me at INUTERO9089@aol.com
Comments