Korn - Here To Stay Chords & Tabs

 

Here To Stay Chords & Tabs

Korn Chords & Tabs

Version: 2 Type: Bass Tab 0 ratings
1 star 2 stars 3 stars 4 stars 5 stars
comments

Here To Stay Bass Tab

   
Enitre song done with either a heavy overrive or distortion,
except for "Bridge1" which is played clean. Have fun.      "Alex Lathum"

Tuning from low to high: A,E,A,D,G

Intro:
---------------|
---------------|
-0--1--0321013-|
---------------|
---------------|

Verse:
-------------1-|
-0--1--032101--|
---------------|
---------------|
---------------|

Pre-Chourus:
---------------|---------------|
-/3------------|-3-------------|
-----2--3020232|--2---3020232--|
---------------|---------------|
[ Tab from: http://www.guitartabs.cc/tabs/k/korn/here_to_stay_btab_ver_2.html ]
Verse:
---------------|---------------|
---------------|-3------0------|
-0------3------|----3-------1--|
---------------|---------------|
---------------|---------------|

Brige1:
---------------|---------------|
---------------|---------------|
---------------|---------------|
---------------|---------------|
-0------1------|-0--3---2---1--|

Bringe2: (for those of you who cant read real sheet music, the dots
mean to use stacoto(short Notes))
 . . ..  ....         
---------------|
---------------|
-0-0-00--0000--|
---------------|
---------------|

Bridge 3:
------------------|
------------------|
-0-0-00-000012b14-|
------------------|
------------------|

Order of song:
opening wth no bass
Intro x8
Verse x12
pre-chourus x2
Chourus x4
Verse x8
pre-chourus x2
Chourus x4
Bridge1 x4
Bridge2 x8
Bridge3 x8
Intro x2
Pre-chourus x2
Chourus x4
Intro x8
Bridge2 x8
Comments