Korn - Here To Stay Chords & Tabs

 

Here To Stay Chords & Tabs

Korn Chords & Tabs

Version: 1 Type: Bass Tab 0 ratings
1 star 2 stars 3 stars 4 stars 5 stars
comments

Here To Stay Bass Tab

5 string bass low to high a d g c f

intro
---------------------|
---------------------|
---------------------| play 5 times
---------------------|
-0--1--0-3-1-0-0-1-2-|

---------------------|--------------------|
---------------------|--------------------|
-------------------2-|------------------1-| play 2 times
-0--1--0-3-1-0-0-1---|-0--1--0-3-1-0-0-1--|
---------------------|--------------------|

verse (play intro)
[ Tab from: http://www.guitartabs.cc/tabs/k/korn/here_to_stay_btab.html ]
pre chorus
-----------------------|        |-----------------------|
-----------------------|        |-----------------------|
-----------------------| play 3x|-----------------------|
-3---------------------|        |-3---------------------|
---2-0-2-3-2-0-2-2-0-2-|        |--2-2-0-2-0-2-3-2-0-2-2|
the state is elevating..... all the f*cked up feelings again

chorus
------|--------|
------|--------|
------|--------| play 8 times
------|-3---0--|
-0---3|---3---1|

play verse
play chorus
 
i'm here to stay part

just palm mute the a string and d string
mess around with it

(break)gonna bring it down part
------------------------------|--------------------------|
------------------------------|--------------------------|
------------------------------|--------------------------|
------------------------------|--------------------------|
-0--0--12-0--0--0-0--0-0-1-2-3|-0--0-12-0--0-0--0--0-1--2|

when he is screaming give anymore play intro

outro
play break

thats it
Comments