Korn - Here It Comes Again Chords & Tabs

 

Here It Comes Again Chords & Tabs

Korn Chords & Tabs

Version: 4 Type: Tab 0 ratings
1 star 2 stars 3 stars 4 stars 5 stars
comments

Here It Comes Again Tab

-----------------------------------------------------------------------------
			       HERE IT COMES AGAIN- KORN
-----------------------------------------------------------------------------
Tabbed by:counting on me
Email:titofotito86@hotmail.com
Tuning:DAGCFA
INTRO GUITAR 1
A|--------------------------------------------------------------------------|
F|--------------------------------------------------------------------------|
C|--------------------------------------------------------------------------|
G|--------------------------------------------------------------------------|
A|--77-785-87-77-785-X4-----------------------------------------------------|
D|--------------------------------------------------------------------------|
GUTAR 1 DISTORTION (I GUEES)
|---------------------------------------------------------------------------|
|---------------------------------------------------------------------------|
|---------------------------------------------------------------------------|
|-77-78-5-87-7778-5---------------------------------------------------------|
|-77-78-5-87-7778-5---------------------------------------------------------|
|-55-56-3-65-5556-3---------------------------------------------------------|
GUITAR 2 DISTORTION
|---------------------------------------------------------------------------|
|---------------------------------------------------------------------------|
|-99-9107-109-99-9107-------------------------------------------------------|
|-99-9107-109-99-9107-------------------------------------------------------|
|-77-78-5-8-7-77-78-5-------------------------------------------------------|
|---------------------------------------------------------------------------|
VERSE GUITARS 1&2
|---------------------------------------------------------------------------|
|---------------------------------------------------------------------------|
|---------------------------------------------------------------------------|
|---------------------------------------------------------------------------|
|---------------------------------------------------------------------------|
|-6666-6666-10101010-3333-3333-333-5555-5555-8888-3333-3333-333-X2----------|
PRE-CHORUS GUITARS 1&2
|---------------------------------------------------------------------------|
|---------------------------------------------------------------------------|
|---------------------------------------------------------------------------|
|-8/12-5-7/105--------------------------------------------------------------|
|-8/12-5-7/105--------------------------------------------------------------|
|-6/10-3-5/8-3--------------------------------------------------------------|
CHORUS GUITAR 1 
|---------------------------------------------------------------------------|
|---------------------------------------------------------------------------|
|---------------------------------------------------------------------------|
|-77-78-5-87-7778-5---------------------------------------------------------|
|-77-78-5-87-7778-5---------------------------------------------------------|
|-55-56-3-65-5556-3---------------------------------------------------------|
GUITAR 2
|---------------------------------------------------------------------------|
|---------------------------------------------------------------------------|
|-99-9107-109-99910-7-------------------------------------------------------|
|-99-9107-109-99910-7-------------------------------------------------------|
|-77-78-5-8-7-7778--5-------------------------------------------------------|
|---------------------------------------------------------------------------|
VERSE 
PRE-CHORUS
CHORUS 
INTERLUDE GUITAR 1
(WITH P.M.)
|---------------------------------------------------------------------------|
|---------------------------------------------------------------------------|
|---------------------------------------------------------------------------|
|---------------------------------------------------------------------------|
|---------------------------------------------------------------------------|
|-5555-65-5555-6666-5555-65-X8----------------------------------------------|
INTERLUDE GITAR 2
|----15~~-----------|
|-------------------|
|-------------------|
|-------------------|
|-------------------|
|-------------------|
HEAVY PART GUITAR 1&2
|----------------------------------------|
|------------------------------9---------|
|------------------------------9---------|
|-7777-87-7777-87-7777-87-7777-9-7777-87-|
|-7777-87-7777-87-7777-87-7777-7-7777-87-|
|-5555-65-5555-65-5555-65-5555---5555-65-|
HEAVY PART 2 GUITAR 1&2
|----------------------------------------|
|----------------------------------------|
|----------------------------------------|
|-7777-87-7777-87-7777-87-7777-5-7777-87-|
|-7777-87-7777-87-7777-87-7777-5-7777-87-|
|-5555-65-5555-65-5555-65-5555-3-5555-65-|

PRE-CHORUS
CHORUS


| /  slide up
| ~  vibrato
=============================================================================
[ Tab from: http://www.guitartabs.cc/tabs/k/korn/here_it_comes_again_tab_ver_4.html ]
Comments