Korn - Here It Comes Again Chords & Tabs

 

Here It Comes Again Chords & Tabs

Korn Chords & Tabs

Version: 3 Type: Tab 0 ratings
1 star 2 stars 3 stars 4 stars 5 stars
comments

Here It Comes Again Tab

   
----------------------------------------------------------------------------
                         KoRn - Here It Comes Again
----------------------------------------------------------------------------

artist: KoRn
song: here it comes again
album: take a look in the mirror

tuning: standard (E B G D A E)

p = pull off
h = hammer on
^ = bend
/ = slide

intro, no distortion
E|---------------------------|
B|---------------------------|
G|---------------------------|
D|---7---6h7-7-6----7---7-5--|
A|---------------------------|
E|-5---5----------5---5------|

intro, distorted
E|-----------------------|
B|-----------------------|
G|-----------------------|
D|-7--7--7787--7-7--776--|
A|-7--7--7787--7-7--776--|
E|-5--5--5565--5-5--554--|

verse, distorted
E|---------------------------------------------------|
B|---------------------------------------------------|
G|---------------------------------------------------|
D|-----------5--------------------------6------------|
A|-7777-7777-3-4444-4444-4444-5555-5555-4-5555-5555--|
E|-5555-5555---2222-2222-2222-3333-3333---3333-3333--|

pre-chorus, u can't really hear this but i think this is right
E|-----------------|
B|-8../9-6--4../5--|
G|-7../8-5--3../4--|
D|-x../x-x--x../x--|
A|-5../6-3--1../2--|
E|-----------------|
[ Tab from: http://www.guitartabs.cc/tabs/k/korn/here_it_comes_again_tab_ver_3.html ]
chorus, distorted
E|-----------------------|
B|-----------------------|
G|-----------------------|
D|-7--7--7787--7-7--776--|
A|-7--7--7787--7-7--776--|
E|-5--5--5565--5-5--554--|

bridge, start at 2:07 of the song, palm mute, im not sure about this
E|------------------------|
B|------------------------|
G|------------------------|
D|------------------------|
A|-0000-0000-111-00000000-|
E|------------------------|

bridge, start this at 2:25 of the song
E|-----------------------------------|--------------------------------|
B|-----------------------------8-8-8-|--------------------------------|
G|-----------------------------7-7-7-|--------------------------------|
D|-777-87--777-87--777-87--777-x-x-x-|-777-87--777-87--777-87--777-6^-|
A|-777-87--777-87--777-87--777-5-5-5-|-777-87--777-87--777-87--777-6^-|
E|-555-65--555-65--555-65--555-------|-555-65--555-65--555-65--555-4^-|

bridge, this is the tune for 2:43 of the song
E|----------------------|------------|--------------------------------|
B|----------------------------8-8-8--|--------------------------------|
G|----------------------------7-7-7--|--------------------------------|
D|-777/6^--777/6^--777/6--777-x-x-x--|-777/6^--777/6^--777/6--777-6^--|
A|-777/6^--777/6^--777/6--777-5-5-5--|-777/6^--777/6^--777/6--777-6^--|
E|-555/4^--555/4^--555/4--555--------|-555/4^--555/4^--555/4--555-4^--|
     ^       ^       ^
start bending slowly here and here

thats all i know
Comments