Korn - Here It Comes Again Chords & Tabs

 

Here It Comes Again Chords & Tabs

Korn Chords & Tabs

Version: 2 Type: Tab 0 ratings
1 star 2 stars 3 stars 4 stars 5 stars
comments

Here It Comes Again Tab

Korn
Here It Comes Again
Take A Look In The Mirror
Tabbed by: Robert Walden
All guitars are distorted unless said otherwise.

Tuning: ADGCFad

Intro-clean/palm-muted
-----------------------------------
-----------------------------------
-----------------------------------
----9----9h10p7-10-----9----9h10p7-
-----------------------------------
-7-----7-----------7----7----------
-----------------------------------

Chorus
-------------------------------
-------------------------------
-------------------------------
-------------------------------
-------------------------------
----7----7h8p5-8------7---7h8p5
-0-----0---------0-0----0------

Verses
--------------------------------------------------------
--------------------------------------------------------
--------------------------------------------------------
--------------------------------------------------------
-----------777-------------------------555--------------
-8888-8888-555-5555-5555-555-7777-7777-333-5555-5555-555
-6666-6666-----3333-3333-333-5555-5555-----3333-3333-333
[ Tab from: http://www.guitartabs.cc/tabs/k/korn/here_it_comes_again_tab_ver_2.html ]
Prechorus
--------------------
--------------------
--------------------
--------------------
--------7--------5--
-8---8--5--5--7--3-5
-6---6-----3--5----3

Bridge Part one-clean/palm-muted-
------------------------------------
------------------------------------
------------------------------------
------------------------------------
------------------------------------
-0000-000-0000-111-0000-000-0000-111
------------------------------------

Bridge Part 2
-------------------------------------------------------
-------------------------------------------------------
-----------------------------------------------10-10-10
------------------------------------------------x--x--x
------------------------------------------------8--8--8
------------------------------------------------x--x--x
-5-5-5-5-6-5--5-5-5-5-6-5--5-5-5-5-6-5--5-5-5-5-6--6--6

--------------------------------------------------
--------------------------------------------------
--------------------------------------------------
--------------------------------------------------
--------------------------------------------------
--------------------------------------------------
-5-5-5-5-6-5--5-5-5-5-6-5--5-5-5-5-6-5--5-5\-3-3-3

Well thats it, just piece it together. More "Take A Look In The Mirror" tabs to
come! Rate it, leave correction in correction box if you feel you need to. enjoy.
Comments