Korn - Here It Comes Again Chords & Tabs

 

Here It Comes Again Chords & Tabs

Korn Chords & Tabs

Version: 1 Type: Tab 0 ratings
1 star 2 stars 3 stars 4 stars 5 stars
comments

Here It Comes Again Tab

   
Here it Comes Again
Artist: Korn

badass song off TALITM heavy and melodic 
Tuning: ADGCFAD as always 7 string guitar 6-string guitarists you cant
play Korn on 6-string guitars especially not in standard tuning or 
drop D like I see so many tabs on this site transcribed in. stop
trying.

Intro: clean with a little palm muting

G----2----2h3-0--3------2----2h3-0- x4
D----------------------------------
A-0-----0----------0--0----0-------

Chorus: heavy distortion (they use mesa boogie rectifiers for their 
distortion on this album the digitech RP series have that on there 
thats the easiest way to get it to sound good)
                    
C----4----4/5-2--5--**--4----4/5-2- x4 **-rest here on third time
G----2----2/3-0--3--**--2----2/3-0-
D-2-----2----------2**2----2-------
A-0-----0----------0**0----0-------

Verse: (still distorted)

Low
A-6-6-6-6---6-6-6-6---10-10-10-3-3-3---3-3-3-3---3-3-3-
Low
A-5-5-5-5---5-5-5-5---8-8-8-3-3-3---3-3-3-3---3-3-3- x2

PreChorus: (two guitars here still distorted basically single 
powerchord version of the verse)
[ Tab from: http://www.guitartabs.cc/tabs/k/korn/here_it_comes_again_tab.html ]
Gtr1
C------7-------------5---- x1
G-8----7--5-----7----5--5-
D-8----5--5-----7----3--5-
A-6-------3-----5-------3-

Gtr2 (amp or fuzz distortion with lotsa reverb)
High 
A-6----10--3-----5----8--3- x1

Interlude: dunno this part I know one guitar is muting one of the high
strings at the nut and bridge and picking it really fast i think its 
either C or F...

Bridge: rests between D5 power chord bunches in first half then play 
it all again without the rests
D---------------------------------------------13-13-13-13-
A----------------------------------------------x--x--x--x-
F---------------------------------------------10-10-10-10-
C---------------------------------------------------------
G-7-7-7-7-7---7-7-7-7-7---7-7-7-7-7---7-7-7-7-------------
D-7-7-7-7-7---7-7-7-7-7---7-7-7-7-7---7-7-7-7-------------
A-5-5-5-5-5---5-5-5-5-5---5-5-5-5-5---5-5-5-5-------------

G-7-7-7-7-7---7-7-7-7-7---7-7-7-7-7---7-7-7-7-7-7-6- thats one loop
D-7-7-7-7-7---7-7-7-7-7---7-7-7-7-7---7-7-7-7-7-7-6- do that 2 times
A-5-5-5-5-5---5-5-5-5-5---5-5-5-5-5---5-5-5-5-5-5-4- with rests then
                                                     2 more w/out em
thats it, fun song has nice beat and groove to it. enjoy.

Comments