Korn - Here It Comes Again Chords & Tabs

 

Here It Comes Again Chords & Tabs

Korn Chords & Tabs

Version: 1 Type: Bass Tab 0 ratings
1 star 2 stars 3 stars 4 stars 5 stars
comments

Here It Comes Again Bass Tab

   
Band- Korn
Song- Here It Comes Again

Intro
F----------------------------------|
C----------------------------------|
G----------------------------------| X4
D----7---7---8---8------7---7-8-7--|
A-0----0-------0-----0-------------|

Verse X2
F----------------------------------------------------------|
C----------------------------------------------------------|
G----------------------------------------------------------|
D----------------------------------------------------------|
A-6-6-6-6--6-6-6-6--10-10-10-10--3-3-3-3--3-3-3-3--3-3-3-3-|

F------------------------------------------------------|
C------------------------------------------------------|
G------------------------------------------------------|
D------------------------------------------------------|
A-5-5-5-5--5-5-5-5--8-8-8-8--3-3-3-3--3-3-3-3--3-3-3-3-|
[ Tab from: http://www.guitartabs.cc/tabs/k/korn/here_it_comes_again_btab.html ]
Pre Chorus
F-------------------|
C-------------------|
G-------------------|
D-------------------|
A-6--10-3---5--8--3-|

F----------------------------------|
C----------------------------------|
G----------------------------------| X4
D----7---7---8---8------7---7-8-7--|
A-0----0-------0-----0-------------|

Verse X2
F----------------------------------------------------------|
C----------------------------------------------------------|
G----------------------------------------------------------|
D----------------------------------------------------------|
A-6-6-6-6--6-6-6-6--10-10-10-10--3-3-3-3--3-3-3-3--3-3-3-3-|

F------------------------------------------------------|
C------------------------------------------------------|
G------------------------------------------------------|
D------------------------------------------------------|
A-5-5-5-5--5-5-5-5--8-8-8-8--3-3-3-3--3-3-3-3--3-3-3-3-|

Bridge
A-6~~

Outro
F--------------|
C--------------|
G--------------| Do alot
D--------------|
A-5-5-5-5--6-5-|
Comments