Korn - Helmet In The Bush Chords & Tabs

 

Helmet In The Bush Chords & Tabs

Korn Chords & Tabs

Version: 4 Type: Tab 0 ratings
1 star 2 stars 3 stars 4 stars 5 stars
comments

Helmet In The Bush Tab

Helmet in the Bush
Korn

Riff 1a(Gtr 1)
D||----------------------------------------||
A||--0-0-0-0--2-3-2-1--0-0-0-0-1-2-1-0--0--||

Riff1b(Gtr 2)
D||-----------9-10-9-8---------8-9-8-7----||
A||--0-0-0-0-----------0-0-0-0---------0--||

Riff2a
d||-----------------------12--||
a||--12^-(12)^-(12)^-(12)^----||<-Gtr 2's part
F||---------------------------||
C||---------------------------||
G||---------------------------||
D||--2------------------------||<-Gtr 1's part
A||--0------------------------||

Riff3-Gtr1
C||----------13----------------||
G||----------12----------------||Gtr 2 plays with wah & whammmy
D||----------11----------------||
A||--0-0-0-0-10--0-0-0-0-0-----||
[ Tab from: http://www.guitartabs.cc/tabs/k/korn/helmet_in_the_bush_tab_ver_4.html ]
Riff2b
d||-----------------------12--||
a||--12^-(12)^-(12)^-(12)^----||Same as riff2a for parts
F||---------------------------||
C||-----------------------16--||
G||-----------------------15--||
D||--2--------------------14--||
A||--0------------------------||

Riff4a-Gtr1
d||----------17^-------17^----||^ whole step
a||---------------------------||or use 22 fret on "a" string
F||---------------------------||
C||---------------------------||Gtr2 plays with wah
G||---------------------------||
D||---------------------------||
A||---------------------------||

Riff4b
d||----------17^-------17^----||* these note fall slightly
a||---------------------------||off cue with gtr1's part
F||---------------------------||
C||---------------------------||
G||---------------------------||
D||-----------*--------*------||<-Gtr2's part; Gtr1 part is
A||---0-0---0-0--0-0-0-0------|| lightly played-louder at end

End Riff
G||-----------9/10\9\8---------8/9\8\7---||
D||-----------9/10\9\8---------8/9\8\7---||
A||--0-0---0-----------0-0---0-----------||

Comments