Korn - Helmet In The Bush Chords & Tabs

 

Helmet In The Bush Chords & Tabs

Korn Chords & Tabs

Version: 2 Type: Tab 1 rating
1 star 2 stars 3 stars 4 stars 5 stars
comments

Helmet In The Bush Tab

belial@psu.edu (Shleestak) 
Subject: TAB "Helmet In The Bush" by KoRn  welly well well...here is Helmet in the Bush...it's my favorite so i thought i might try it.  as you can see it's for regular geetar..for us 7 string impaired. this is pretty rough, so don't take it for exact transaction.  
ENJOY!!!!  HELMET IN THE BUSH  
e|------------------|-----------------|
B|------------------|-----------------| 
G|------------------|-----------------| 
D|------------------|-----------------| 
A|------------------|-2-2-2-2-4/5\4\3-| 
E|-0-0-0-0-2-3-2-4--|-0-0-0-0-2/3\2\1-|       ???? 

e|--------6~~~--|-------------------| 
B|-7^-^-^-------|-------------------| 
G|--------------|-------------------| 
D|--------------|-------------------| 
A|--------------|--2222-5\3---------| 
E|--------------|--0000-3\1-00000---|   
[ Tab from: http://www.guitartabs.cc/tabs/k/korn/helmet_in_the_bush_tab_ver_2.html ]
e|-----------------|-------------------|
B|-----------------|-------------------| 
G|-----------------|-------------------| 
D|-----------------|-------------------| 
A|-2-2-2-2-4/5\4\3-|--2222-5\3---------| 
E|-0-0-0-0-2/3\2\1-|--0000-3\1-00000---|   

e|-18~~~~--16~~~~~~-|---------------| 
B|------------------|---------------| 
G|------------------|---------------| 
D|------------------|---------------| 
A|------------------|---------------| 
E|------------------|--00000-00000--|   blah blah blah....   

any question/comments/marraige proposals mail to: belial@psu.edu  tabbed by me, derrick/shlee  
"Dare to be honest, be yourself.  A cowardly man......"  -=Korn=-                             
me homepage.... http://comland.com/~darrend/Belial.htm    


Date: Fri, 3 Nov 1995 10:29:27 -0800 (PST) 
From: James Albers   Helmet in the Bush-Korn Transcribed by James Albers   
Riff 1a(Gtr 1) 
D||----------------------------------------|| 
A||--0-0-0-0--2-3-2-1--0-0-0-0-1-2-1-0--0--||  
Riff1b(Gtr 2) 
D||-----------9-10-9-8---------8-9-8-7----|| 
A||--0-0-0-0-----------0-0-0-0---------0--||  
Riff2a 
d||-----------------------12--|| 
a||--12^-(12)^-(12)^-(12)^----||=09=09
Comments