Korn - Helmet In The Bush Chords & Tabs

 

Helmet In The Bush Chords & Tabs

Korn Chords & Tabs

Version: 1 Type: Bass Tab 0 ratings
1 star 2 stars 3 stars 4 stars 5 stars
comments

Helmet In The Bush Bass Tab

   
-------------------------------
***Helmet in the Bush---Korn***
-------------------------------

Written by Korn

5-string Bass in Dropped A tuning (A,E,A,D,G)


INTRO:

G|-----------------------------
D|-----------------------------
A|-----------------------------
E|-----------------------------
A|--0--0--0--0-----0--0--0--0--

guitar:
(this bassline is so simple that i added the guitar part also)
[ Tab from: http://www.guitartabs.cc/tabs/k/korn/helmet_in_the_bush_btab.html ]
e|---------------------------------------------
b|---------------------------------------------
G|---------------------------------------------
D|---------------------------------------------
A|---------------------------------------------
E|--0--0--0--0------------0--0--0--0-----------
A|--0--0--0--0--2h3p2p0---0--0--0--0--1h2p1p0--

    P.M.------|           P.M.------|


VERSE/CHORUS:

A|---------------------------
E|---------------------------
A|--0--0--0--0---0--0--0--0--


PRE-CHORUS:

A|--------------12--------------12--
E|----------------------------------
A|--0--0--0--0------0--0--0--0------


transcribed by max asare

Comments