Korn - Hating Chords & Tabs

 

Hating Chords & Tabs

Korn Chords & Tabs

Version: 3 Type: Tab 0 ratings
1 star 2 stars 3 stars 4 stars 5 stars
comments

Hating Tab

KoRn
HAting
Untouchables

Ok, this is a good song from Korn one of the best vocally and musically, i am
Not good with effects so i didnt put any, use Distortionon everything except for
the intro and verse, i believe they use clean and a wah pedal for verse
 HEy LA lA! I Made IT Big!

Intro
d||--------------------------------------------------------
A||--------------------------------------------------------
F||--------------------------------------------------------
C||--------------------------7-7---------------------------  
G||-7-7-----9-9-----------------------10-10--9-9-----------
D||-------------10-10-10----------7-------------------------
A||--------------------------------------------------------

d||--------------------------------------------------------
A||--------------------------------------------------------
F||--------------------------------------------------------
C||------------------------------7-7-----------------------  
G||-----7-7-----9-9------------------------10-10--9--9-----
D||7------------------10-10-10---------7-------------------
A||--------------------------------------------------------


Verse

d||--------------------------------------------------------
A||--------------------------------------------------------
F||--------------------------------------------------------
C||--------------------------7-7---------------------------  
G||-7-7-----9-9-----------------------10-10--9-9-9---------
D||-------------10-10-10----------7------------------------
A||--------------------------------------------------------

d||--------------------------------------------------------
A |--------------------------------------------------------
F||--------------------------------------------------------
C||------------------------------7-7----------------------- 
G||-----7-7-----9-9------------------------10-10--9--9-9---
D||7------------------10-10-10---------7-------------------
A||-------------------------------------------------------


GTR 2
d ||---------------------------------------------------------
A ||---------------------------------------------------------
F ||--16---14---14---12---11---------------------------------
C ||--x----x----x----x----x----------------------------------
G ||--14---12---12---10---9----------------------------------
D ||---------------------------------------------------------
A ||---------------------------------------------------------Pre Chorus
GTR 1
d ||-----------------------------------------
A ||-----------------------------------------
F ||-----------------------------------------
C ||--9--10---7------------------------------   x3
G ||--9--10---7------------------------------
D ||--7---8---5------------------------------
A ||-----------------------------------------

d ||--------------------------------------------------------
A ||--------------------------------------------------------
F ||--------------------------------------------------------
C ||-9--10---12--------------------------------------------- x1 
G ||-9--10---12---------------------------------------------
D ||-7---8---10---------------------------------------------
A ||--------------------------------------------------------

GTR2
d ||------------------------------------------------------------
A ||--12-12-12-12-12-12-----------------------------------------
F ||------------------------------------------------------------
C ||----------------------------------------------------------- Minute Picking
G ||------------------------------------------------------------
D ||------------------------------------------------------------
A ||------------------------------------------------------------ 
Chorus


d ||-----------------------------------------
A ||-----------------------------------------
F ||-----------------------------------------
C ||--------5--------------------------------  
G ||-7---3--5---5----------------------------
D ||-7---3--3---5----------------------------
A ||-5---1------3----------------------------

d ||-----------------------------------------
A ||-----------------------------------------
F ||-----------------------------------------
C ||----------------------------------------
G ||-7----3---5----6--------------------------
D ||-7----3---5----6--------------------------
A ||-5----1---3----4--------------------------


GTR2
d ||------------------------------------------------------------
A ||------------------------------------------------------------
F ||---9---11----------------12---11----9-----------------------
C ||---x----x----12-----9-----x----x----x-----------------------
G ||---7----9----x------x----10----9----7-----------------------
D ||-------------10-----7---------------------------------------
A ||------------------------------------------------------------ 

d ||------------------------------------------------------------
A ||------------------------------------------------------------
F ||---9---11----------------12---11----------------------------
C ||---x----x----12-----9-----x----x----------------------------
G ||---7----9----x------x----10----9----------------------------
D ||-------------10-----7--------------------------------------
A ||------------------------------------------------------------ 

Interlude
" Find, Find, Find
d ||-----------------------------------------
A ||-----------------------------------------
F ||-----------------------------------------
C ||-----------------------------------------
G ||-7-7-7-7-7-7----------------------------- x3
D ||-7-7-7-7-7-7-----------------------------
A ||-5-5-5-5-5-5-----------------------------
[ Tab from: http://www.guitartabs.cc/tabs/k/korn/hating_tab_ver_3.html ]
d ||-------------------------------------------
A ||-------------------------------------------
F ||-------------------------------------------
C ||-------------------------------------------
G ||-7-7-7-----8-8-8-8------------------------ x1
D ||-7-7-7-----8-8-8-8------------------------
A ||-5-5-5-----6-6-6-6------------------------

Bridge ( Middle Or whatever You CAll it)


d ||-------------------------------------------
A ||-----0------0------0-----------------------
F ||-----0------0------0-----------------------
C ||-------------------------------------------
G ||--7-----8------11-----10----6--5-----------
D ||--7-----8------11-----10----6--5-----------
A ||--5-----6------9-------8----4--3-----------
     ALL  Feeling  Have   Eating......

d ||-------------------------------------------
A ||-----0------0------0-----------------------
F ||-----0------0------0-----------------------
C ||-------------------------------------------
G ||--7-----8------11-----10----6--5-----------
D ||--7-----8------11-----10----6--5-----------
A ||--5-----6------9-------8----4--3----------
  ALL OF ME (Play While JOn says "all of me")d ||--------------------------------------------
A ||-----0------0------0---------------------------
F ||-----0------0------0---------------------------
C ||-------------------------------------------
G ||--7-----8------11-----10----6--5-----------
D ||--7-----8------11-----10----6--5-----------
A ||--5-----6------9-------8----4--3----------
   
Feeling  tired   is    some thing


d ||------------------------------------------
A ||-----0------0------0----------------------
F ||-----0------0------0----------------------
C ||------------------------------------------
G ||--7-----8------11-----10----6--5----------
D ||--7-----8------11-----10----6--5----------
A ||--5-----6------9-------8----4--3----------
 Wrong with me ( PLay this While JOn SAys "wrong with me")


Pre Chorus

d ||-----------------------------------------
A ||-----------------------------------------
F ||-----------------------------------------
C ||--9--10---7------------------------------   x3
G ||--9--10---7------------------------------
D ||--7---8---5------------------------------
A ||-----------------------------------------d ||--------------------------------------------------------
A ||--------------------------------------------------------
F ||--------------------------------------------------------
C ||-9--10---12--------------------------------------------- x1 
G ||-9--10---12---------------------------------------------
D ||-7---8---10---------------------------------------------
A ||--------------------------------------------------------

Chorus

d ||-----------------------------------------
A ||-----------------------------------------
F ||-----------------------------------------
C ||--------5--------------------------------  
G ||-7---3--5---5----------------------------
D ||-7---3--3---5----------------------------
A ||-5---1------3----------------------------

d ||-----------------------------------------
A ||-----------------------------------------
F ||-----------------------------------------
C ||----------------------------------------
G ||-7----3---5----6--------------------------
D ||-7----3---5----6--------------------------
A ||-5----1---3----4--------------------------

GTR2
d ||------------------------------------------------------------
A ||------------------------------------------------------------
F ||---9---11----------------12---11----9-----------------------
C ||---x----x----12-----9-----x----x----x-----------------------
G ||---7----9----x------x----10----9----7-----------------------
D ||-------------10-----7---------------------------------------
A ||------------------------------------------------------------ 

d ||------------------------------------------------------------
A ||------------------------------------------------------------
F ||---9---11----------------12---11----------------------------
C ||---x----x----12-----9-----x----x----------------------------
G ||---7----9----x------x----10----9----------------------------
D ||-------------10-----7--------------------------------------
A ||------------------------------------------------------------ 


Outro 

   " Find, Find, Find"
d ||-----------------------------------------
A ||-----------------------------------------
F ||-----------------------------------------
C ||-----------------------------------------
G ||-7-7-7-7-7-7----------------------------- x3
D ||-7-7-7-7-7-7-----------------------------
A ||-5-5-5-5-5-5-----------------------------

d ||-------------------------------------------
A ||-------------------------------------------
F ||-------------------------------------------
C ||-------------------------------------------
G ||-7-7-7-----8-8-8-8------------------------ x1
D ||-7-7-7-----8-8-8-8------------------------
A ||-5-5-5-----6-6-6-6------------------------

THats it Korn Kids******EXTRA********

THIS IS THE MUSIC ON THE KORN.COM WEBSITE, A LOT OF PEOPLE HAVE BEEN ASKING FOR IT SO HERE IT GOES.
BY MAtthew Weatherspoon iamhated742617000027@yahoo.com
THIS is fairly easy.. a lot of people have been asking for it.
Well here it is  STANDARD KoRN Tuning ADGCFAd... 7 strin guitar tuned down one whole step
6 string tuned down about 412 stepsd ||-----------------------------------------------------
A ||-----------------------------------------------------
F ||-----------7------------------6------------------------
C ||------------------7-----------------------------------  
G ||--------5-----5-------4----5-------------------------
D ||---7--------------------------------------------------
A ||------------------------------------------------------

GUitar 2
d ||-----------------------------------------------------
A ||---19---17---15---14--12^--------------------------
F ||-----------------------------------------------------
C ||-----------------------------------------------------  
G ||-----------------------------------------------------
D ||-----------------------------------------------------
A ||------------------------------------------------------
Comments