Korn - Got The Life Chords & Tabs

 

Got The Life Chords & Tabs

Korn Chords & Tabs

Version: 5 Type: Tab 0 ratings
1 star 2 stars 3 stars 4 stars 5 stars
comments

Got The Life Tab

   
Author/Artist: Korn
Title: Got the Life
Album: Follow the Leader
Tabbed by: Marc Randrup

Tuning low to high 7 string: A D G C F A D.
For 6 string just take off the low A.
These tabs are all right i got them all out of the tab book!!!!!

	Intro: Gtr 2 (w/ dist.)
 D--------------------------------------------------------------------
 A--7-7-7-7---7-7--7-7-7-7---7-7---5-5-5-5-5/8---8-8-8-8/14-14-14-14--
 F--x-x-x-x---x-x--x-x-x-x---x-x---x-x-x-x-x-x---x-x-x-x--x--x--x--x--
 C--4-4-4-4---4-4--4-4-4-4---4-4---2-2-2-2-2/5---5-5-5-5/11-11-11-11--
 G--------------------------------------------------------------------
 D--------------------------------------------------------------------
 A--------------------------------------------------------------------


	Intro: Gtr 1 (3 times) w/ sim
 D------------------------------------------------------------------------------------------------
 A--14-14-15--7-7-7--7-7-7-7---7-7---5-5-5-5-5/8--8--8/15-15-15-15-15-15-15\7--7--7--7-7---7-7----
 F---x--x--x--x-x-x--x-x-x-x---x-x---x-x-x-x-x-x--x--x--x--x--x--x--x--x--x-x--x--x--x-x---x-x----
 C--11-11-12--4-4-4--4-4-4-4---4-4---2-2-2-2-2/5--5--5/12-12-12-12-12-12-12\4--4--4--4-4---4-4----
 G------------------------------------------------------------------------------------------------
 D------------------------------------------------------------------------------------------------
 A------------------------------------------------------------------------------------------------

 D------------------------------------------------------------------------------------------------
 A--5-5-5--5/8-8-8-8-8/14-14-14-14-14-14-15--7-7-7--7-7-7-7---7-7---5--5-5-5-5/8--8-8-8-8-8-8-8-8-
 F--x-x-x--x-x-x-x-x-x--x--x--x--x--x--x--x--x-x-x--x-x-x-x---x-x---x--x-x-x-x-x--x-x-x-x-x-x-x-x-
 C--2-2-2--2-5-5-5-5-5-11-11-11-11-11-11-12--4-4-4--4-4-4-4---4-4---2--2-2-2-2/5--5-5-5-5-5-5-5-5-
 G------------------------------------------------------------------------------------------------
 D------------------------------------------------------------------------------------------------
 A------------------------------------------------------------------------------------------------

 
	PreVerse: Gtr 1
 D------------------------------------------------------------------------------------------------
 A--8---------------------------------------------------------------------------------------------
 F--x---------------------------------------------------------------------------------------------
 C--6---------------------------------------------------------------------------------------------
 G------------------------------------------------------------------------------------------------
 D------------------------------------------------------------------------------------------------
 A------------------------------------------------------------------------------------------------
	

	Verse: Gtr 2 (w/ wammy pedal)
 D--14--------------------------15-------------19-----14------------------------------------------
 A------------------------------------------------------------------------------------------------
 F------------------------------------------------------------------------------------------------
 C------------------------------------------------------------------------------------------------
 G------------------------------------------------------------------------------------------------
 D------------------------------------------------------------------------------------------------
 A------------------------------------------------------------------------------------------------


	Verse: Gtr 1 
 D------------------------------------------------------------------------------3--3---3--3--3--3-
 A------------------------------------------------------------------------------5--5---5--5--5--5-
 F------------------------------------------------------------------------------4--4---4--4--4--4-
 C------------------------------------------------------------------------------------------------
 G------------------------------------------------------------------------------------------------
 D------------------------------------------------------------------------------------------------
 A------------------------------------------------------------------------------------------------


	Verse: Gtr 1 (3 times)
 D--14---------------------------------19-------------14----------------14-------15-------19---14-
 A-----------------------17-----------------------------------------------------------------------
 F------------------------------------------------------------------------------------------------
 C------------------------------------------------------------------------------------------------
 G------------------------------------------------------------------------------------------------
 D------------------------------------------------------------------------------------------------
 A------------------------------------------------------------------------------------------------
[ Tab from: http://www.guitartabs.cc/tabs/k/korn/got_the_life_tab_ver_5.html ]
 D------------------------------------------14------------------------19--------14----------------
 A------------------------------------------------------------17----------------------------------
 F------------------------------------------------------------------------------------------------
 C------------------------------------------------------------------------------------------------
 G------------------------------------------------------------------------------------------------
 D------------------------------------------------------------------------------------------------
 A------------------------------------------------------------------------------------------------


	This is the part where Jonathan Davis is saying "Get your boogie on!"   Gtr 2
 D------------------------------------------------------------------------------------------------
 A------------------------------------------------------------------------------------------------
 F------------------------------------------------------------------------------------------------
 C------------------------------------------------------------------------------------------------
 G--4--4--x--x--2--2--4--4--x--x--x--x--4--4--x--x--4--4--x--x--2--2--4--4--x--x--x--x--4--4--x--x
 D------------------------------------------------------------------------------------------------
 A------------------------------------------------------------------------------------------------

 D------------------------------------------------------------------------------------------------
 A------------------------------------------------------------------------------------------------
 F------------------------------------------------------------------------------------------------
 C------------------------------------------------------------------------------------------------
 G--4--4--x--x--2--2--4--4--x--x--x--x--4--4--x--x--4--4--x--x--2--2--4--4--x--x--x--x--4--4--x--x
 D------------------------------------------------------------------------------------------------
 A------------------------------------------------------------------------------------------------
 
 
	Chorus: Gtr1 (7 times)
	(wammy pedal turned off)
 D--------------------------------------------------------------------------------------------------
 A--------12--12-12-12-12-----12---12-12-12-12----------------------------------------------------
 F--------------------------------------------------------------------------------------------------
 C--------------------------------------------------------------------------------------------------
 G--------------------------------------------------------------------------------------------------
 D--------------------------------------------------------------------------------------------------
 A--------------------------------------------------------------------------------------------------


	Chorus:  Gtr 2 (2 times)  
 D--------------------------------------------------------------------------------------------------
 A---------------------------------------------------8----------------------------------------------
 F--------------------------------------------------------------------------------------------------
 C---------------------------------------------------6----------------------------------------------
 G--------------------------------------------------------------------------------------------------
 D--------------------------------------------------------------------------------------------------
 A--------------------------------------------------------------------------------------------------

 D--------------------------------------------------------------------------------------------------
 A--------------------------------------------------------------------------------------------------
 F---------------------------------------------------------------------------(0)-------------0------
 C--------------------------------------------------------------------------------------------------
 G--------------------------------------------------------------------------------------------------
 D--------------------------------------------------------------------------------------------------
 A--------------------------------------------------------------------------------------------------

 D--------------------------------------------------------------------------------------------------
 A--------------------------------------------------------------------------------------------------
 F--------------------------------------------------------------------------------------------------
 C--------------------------------------------------------------------------------------------------
 G--------------------------------------------------------------------------------------------------
 D--------------------------------------------------------------------------------------------------
 A-------4------------4--------44--------------------------------------------------------4-4-4-4--4-


	Bridge: Gtr 1 (ring w/ modulator)
 D--------------------------------------------------------------------------------------------------
 A-------8----------------------------------------------------------8-------------------10----------
 F-----------------------------------------------------------------------------9--------------------
 C--------------------------------------------------------------------------------------------------
 G--------------------------------------------------------------------------------------------------
 D--------------------------------------------------------------------------------------------------
 A--------------------------------------------------------------------------------------------------

 Then the outro is the same as the intro so just paly that!!!!!!

  This may seem big and complicated but it sounds cool wen u get it. This is exactly
wat the tab book said so its all right......... 
Comments