Korn - Got The Life Chords & Tabs

 

Got The Life Chords & Tabs

Korn Chords & Tabs

Version: 4 Type: Tab 0 ratings
1 star 2 stars 3 stars 4 stars 5 stars
comments

Got The Life Tab

   
Artist: Korn
Song: Got The Life
Albun: Follow The Leaders
By: Sepultura5000@Hotmail.com

==========
| Tuning |
==========

Seven String guitar tuned down one whole step.
                
           Standard       To Play This Song
7 string      B                   A
6 string      E                   D
5 string      A                   G
4 string      D                   C
3 string      G                   F
2 string      B                   A
1 string      E                   D

============
| Notation |
============

/     =     Slide Up
\     =     Slide Down
P.M.  =     Palm Mute
x     =     Stop sound (Not a mute in this tab)
h     =     Hammer On
p     =     Pull Off

 =============
|Intro/Chorus |
 =============

    B5       B B  B        B    A          F         Eflat
    1        2    3        4
||-----------------------------|---------------------------------|
||--7-7-7-7--7-7--7-7-7-7--7-7-|-5-5-5-5-5/8-8-8-8-8/14-14-14-14-|
||--x-x-x-x--x-x--x-x-x-x--x-x-|-x-x-x-x-x-x-x-x-x-x--x--x--x--x-|
||--4-4-4-4--4-4--4-4-4-4--4-4-|-2-2-2-2-2/5-5-5-5-5/11-11-11-11-|
||-----------------------------|---------------------------------|
||-----------------------------|---------------------------------|
||-----------------------------|---------------------------------|

     B                           A         F     Eflat
||-----------------------------|-----------------------------|
||--14-14-15-7-7-7-7-7-7-7-7-7-|-5-5-5-5-5/8-8-8/15-15-15-15-|
||---X--X--X-X-X-X-X-X-X-X-X-X-|-X-X-X-X-X-X-X-X--X--X--X--X-|
||--11-11-12-4-4-4-4-4-4-4-4-4-|-2-2-2-2-2/5-5-5/12-12-12-12-|
||-----------------------------|-----------------------------|
||-----------------------------|-----------------------------|
||-----------------------------|-----------------------------|

     B                            A       F         Eflat
||-----------------------------|-------------------------------|
||--15-15-15\7--7--7-7-7--7-7--|-5-5-5-5/8-8-8-8-8/14-14-14-14-|
||---X--X--X-X--X--X-X-X--X-X--|-X-X-X-X-X-X-X-X-X--X--X--X--X-|
||--12-12-12\4--4--4-4-4--4-4--|-2-2-2-2/5-5-5-5-5/11-11-11-11-|
||-----------------------------|-------------------------------|
||-----------------------------|-------------------------------|
||-----------------------------|-------------------------------|

    B                             A         F         Eflat
||-----------------------------|-----------------------------|
||-14-14-15-7-7-7-7-7-7-7--7-7-|-5-5-5-5-5/8-8-8-8-8-8-8-8-8-|
||--x--x--x-x-x-x-x-x-x-x--x-x-|-x-x-x-x-x-x-x-x-x-x-x-x-x-x-|
||-11-11-12-4-4-4-4-4-4-4--4-4-|-2-2-2-2-2/5-5-5-5-5-5-5-5-5-|
||-----------------------------|-----------------------------|
||-----------------------------|-----------------------------|
||-----------------------------|-----------------------------|
[ Tab from: http://www.guitartabs.cc/tabs/k/korn/got_the_life_tab_ver_4.html ]
Riff 2 let chord ring through out
||---------------|---------------|---------------|---------------|
||--8------------|---------------|---------------|---------------|
||--x------------|---------------|---------------|---------------|
||--6------------|---------------|---------------|---------------|
||---------------|---------------|---------------|---------------|
||---------------|---------------|---------------|---------------|
||---------------|---------------|---------------|---------------|

verse w/whammy wah preset 13
||--14-----15-----19--14--|-------------|--14----------19----|
||------------------------|-------------|---------17---------|
||------------------------|-------------|--------------------|
||------------------------|-------------|--------------------|
||------------------------|-------------|--------------------|
||------------------------|-------------|--------------------|
||------------------------|-------------|--------------------|

verse cont.
||--14------------|-------------|--14----15---19--14--|-----------|
||----------------|-------------|---------------------|-----------|
||----------------|-------------|---------------------|-----------|
||----------------|-------------|---------------------|-----------|
||----------------|-------------|---------------------|-----------|
||----------------|-------------|---------------------|-----------|
||----------------|-------------|---------------------|-----------|

verse cont.
||--14----------19-|--14------------|
||--------17-------|----------------|
||-----------------|----------------|
||-----------------|----------------|
||-----------------|----------------|
||-----------------|----------------|
||-----------------|----------------|

get your boogie on part w/tremolo
||---------------------------------|---------------------------------|
||---------------------------------|---------------------------------|
||---------------------------------|---------------------------------|
||---------------------------------|---------------------------------|
||-4-4-x-x-2-2-4-4-x-x-x-x-4-4-x-x-|-4-4-x-x-2-2-4-4-x-x-x-x-4-4-x-x-|
||---------------------------------|---------------------------------|
||---------------------------------|---------------------------------|

cont.
||---------------------------------|---------------------------------|
||---------------------------------|---------------------------------|
||---------------------------------|---------------------------------|
||---------------------------------|---------------------------------|
||-4-4-x-x-2-2-4-4-x-x-x-x-4-4-x-x-|-4-4-x-x-2-2-4-4-x-x-x-x-4-4-x-x-|
||---------------------------------|---------------------------------|
||---------------------------------|---------------------------------|

RIFF 3
||-------------------
||-------------------
||-------------------
||-------------------
||-------------------
||-------------------
||--4<-VOLUME SWELL--

BRIDGE w/ring modulator
||-----------------------|--------------------|
||-----------------------|---8-----------10---|
||--8--------------------|-----------9--------|
||-----------------------|--------------------|
||-----------------------|--------------------|
||-----------------------|--------------------|
||-----------------------|--------------------|

bridge cont.
||-----------------------|--------------------|
||-----------------------|--8-----------------|
||--8--------------------|-------9------------|
||-----------------------|--------------------|
||-----------------------|--------------------|
||-----------------------|--------------------|
||-----------------------|--------------------|


riff 4 arranged for 1 gtr       4x
||-------13^-------|-------13^-------|
||--12^------------|--12^------------|
||--------------0--|--------------0--|
||--------------3--|--------------3--|
||-----------------|-----------------|
||-----------------|-----------------|
||-----------------|-----------------|
Comments