Korn - Got The Life Chords & Tabs

 

Got The Life Chords & Tabs

Korn Chords & Tabs

Version: 1 Type: Tab 0 ratings
1 star 2 stars 3 stars 4 stars 5 stars
comments

Got The Life Tab

#----------------------------------PLEASE NOTE---------------------------------#
#This file is the author's own work and represents their interpretation of the #
#song. You may only use this file for private study, scholarship, or research. #
#------------------------------------------------------------------------------#

Song: Got the Life
Band: KoRn
Album: Follow the Leader
Tabbed By: Paul De Jaegher (pdj91@hotmail.com)
Date: February 16, 1999

Tuning: Normal

I have made sure that all the chords are right.  The timing may not be
exact, but it will do the trick.  Enjoy!

                                                                        
	Intro: Play Twice

E|----------------------------------------------------------------------|
B|----------------------------------------------------------------------|
G|--9-9-9-9-9-9-9-9--/--7-7-7--/--10-10-10-10-10--/--16-16-16-16-16-16--|
D|--x-x-x-x-x-x-x-x--/--x-x-x--/---x--x--x--x--x--/---x--x--x--x--x--x--|
A|--7-7-7-7-7-7-7-7--/--5-5-5--/---8--8--8--8--8--/--14-14-14-14-14-14--|
E|----------------------------------------------------------------------|
                                                                        


E|----------------------------------------------------------------------|
B|----------------------------------------------------------------------|
G|--9-9-9-9-9-9-9-9--/--7-7-7--/--10-10-10-10-10--/--17-17-17-17-17-17--|
D|--x-x-x-x-x-x-x-x--/--x-x-x--/---x--x--x--x--x--/---x--x--x--x--x--x--|
A|--7-7-7-7-7-7-7-7--/--5-5-5--/---8--8--8--8--8--/--15-15-15-15-15-15--|
E|----------------------------------------------------------------------|

	Verse: Play Twice 
	
	Munky and Head use natural harmonics and a whammy pedal
[ Tab from: http://www.guitartabs.cc/tabs/k/korn/got_the_life_tab.html ]
E|--------------------5-------------------------------------------------|
B|---5-----------------------5------------------------------------------|
G|----------3----------------------------------4 beat rest--------------|
D|----------------------------------------------------------------------|
A|----------------------------------------------------------------------|
E|----------------------------------------------------------------------|
                                                                        


E|----------10-----------5----------------------------------------------|
B|---5-------------------------------5----------------------------------|
G|----------------------------------------------------------------------|
D|----------------------------------------------------------------------|
A|----------------------------------------------------------------------|
E|----------------------------------------------------------------------|

	Chorus: Play Twice

E|----------------------------------------------------------------------|
B|----------------------------------------------------------------------|
G|----4---4-4-4-4---4-----4-4---4----7-7-7-7--/--17-17-17--/--16-16-16--|
D|-----------------------------------x-x-x-x--/---x--x--x--/---x--x--x--|
A|-----------------------------------5-5-5-5--/--15-15-15--/--14-14-14--|
E|----------------------------------------------------------------------|



E|----------------------------------------------------------------------|
B|----------------------------------------------------------------------|
G|---9-9-9-9-9-9-9-9--/--7-7-7--/--10-10-10-10-10--/--5-5-5-5-5-5--/----|
D|---x-x-x-x-x-x-x-x--/--x-x-x--/---x--x--x--x--x--/--x-x-x-x-x-x--/----|
A|---7-7-7-7-7-7-7-7--/--5-5-5--/---8--8--8--8--8--/--3-3-3-3-3-3--/----|
E|----------------------------------------------------------------------|



E|----------------------------------------------------------------------|
B|----------------------------------------------------------------------|
G|--9-9-9-9-9-9-9-9--/--7-7-7--/--10-10-10-10-10--/--16-16-16-16-16-16--|
D|--x-x-x-x-x-x-x-x--/--x-x-x--/---x--x--x--x--x--/---x--x--x--x--x--x--|
A|--7-7-7-7-7-7-7-7--/--5-5-5--/---8--8--8--8--8--/--14-14-14-14-14-14--|
E|----------------------------------------------------------------------|



E|------------------------------------------------|
B|------------------------------------------------|
G|--9-9-9-9-9-9-9-9--/--7-7-7--/--10-10-10-10-10--|
D|--x-x-x-x-x-x-x-x--/--x-x-x--/---x--x--x--x--x--|
A|--7-7-7-7-7-7-7-7--/--5-5-5--/---8--8--8--8--8--|
E|------------------------------------------------|

For more KoRn tabs go to http://www.angelfire.com/bc/paulsworld
Comments