Korn - Got The Life Chords & Tabs

 

Got The Life Chords & Tabs

Korn Chords & Tabs

Version: 5 Type: Bass Tab 0 ratings
1 star 2 stars 3 stars 4 stars 5 stars
comments

Got The Life Bass Tab

   
-------------------------------------------------------------------------------
			     GOT THE LIFE - KoRn
-------------------------------------------------------------------------------

Tabbed By : KoRnKid89
e-mail: XblytheX89@aol.com

Tuning: ADGCF


  Intro pt. 1 / Chorus: 
    S  S S S  S S  S S S     S       S       S
F|------------------------|----------------------|
C|------------------------|----------------------|
G|------------------------|--0-------------------|
D|------------------------|----------1-----------|
A|--0--0-0-0--0-0--0-0-0--|------------------3~--| (x8)


  Intro pt. 2 / Verse:    
    S  S S S         S     S   S  S S S         S     S   S  S S S         S     S   S  S S S         S
F|----------------------|--------------------------|--------------------------|--------------------------|
C|----------------------|--------------------------|--------------------------|--------------------------|
G|----------------------|--------------------------|--------------------------|--------------------------|
D|----------------------|--------------------------|--------------------------|--------------------------|
A|--1--0-0-3--0-0-00-1--|--0h1-1--0-0-3--0-0-00-1--|--0h1-1--0-0-3--0-0-00-1--|--0h1-1--0-0-3--0-0-00-1--| 
  (Intro pt. 2: x1, Verse: x4)

[ Tab from: http://www.guitartabs.cc/tabs/k/korn/got_the_life_btab_ver_5.html ]
"Get your boogie on..." - No bass.


  Bridge pt. 1:
F|------------------------|----------------------|
C|------------------------|----------------------|
G|------------------------|--0-------------------|
D|------------------------|----------1-----------|
A|--0---------------------|------------------3~--| (x8)

  Bridge pt. 2: 
    S  S S S         S     S   S  S S S         S     S   S  S S S         S     S   S  S S S         S
F|----------------------|--------------------------|--------------------------|--------------------------|
C|----------------------|--------------------------|--------------------------|--------------------------|
G|----------------------|--------------------------|--------------------------|--------------------------|
D|----------------------|--------------------------|--------------------------|--------------------------|
A|--1--0-0-3--0-0-00-1--|--0h1-1--0-0-3--0-0-00-1--|--0h1-1--0-0-3--0-0-00-1--|--0h1-1--0-0-3--0-0-00-1--| (x2)


  Last note:
F|------------------------|
C|------------------------|
G|------------------------|
D|------------------------|
A|--0---------------------|


| P  pop
| S  slap
| /  slide up
| \  slide down
| h  hammer-on
| p  pull-off
| ~  vibrato
| +  harmonic
| x  Mute note
===============================================================================
Comments