Korn - Got The Life Chords & Tabs

 

Got The Life Chords & Tabs

Korn Chords & Tabs

Version: 4 Type: Bass Tab 0 ratings
1 star 2 stars 3 stars 4 stars 5 stars
comments

Got The Life Bass Tab

This song is played on a 5 string bass, but unfortunately, I play a 4 string (A,D,G,C).
Fieldy SLAPS his shit!

Intro/Chorus:
C|---------------------|
G|---------------------|
D|-----------5---------|
A|0-000-0-000----6---3-|

[ Tab from: http://www.guitartabs.cc/tabs/k/korn/got_the_life_btab_ver_4.html ]
Verse:
C|---------------------|
G|---------------------|
D|---------------------|
A|-2/0--0/1--0-0/1-2-3-|


Bridge:
C|---------------------|
G|---------------------|
D|-7---------5---------|
A|---------------6---3-|


I'm not too positive on the verse, but generally, it sounds correct!
Comments