Korn - Good God Chords & Tabs

 

Good God Chords & Tabs

Korn Chords & Tabs

Version: 7 Type: Tab 0 ratings
1 star 2 stars 3 stars 4 stars 5 stars
comments

Good God Tab

Band: Korn
Song: Good God
Album: Life is Peachy
Tabbed by: KoRn Fan Kenny

This is the correct way to play Good God.

7 String tunned (ADGCFAD)
[ Tab from: http://www.guitartabs.cc/tabs/k/korn/good_god_tab_ver_7.html ]
Riff 1:
|-----20-----20---------20-----20---------20-----20---------19-----20--|
|----------------------------------------------------------------------|
|----------------------------------------------------------------------|
|----------------------------------------------------------------------|
|----------------------------------------------------------------------|
|----------------------------------------------------------------------|
|-1-0----0-0----1-0-1-0----0-0----1-0-1-0----0-0----1-0-1-0----0-0-----|

Riff 2:
|------------------------|
|--------(7)-----(7)-----|
|-----(5)-----------(7)--|
|------------------------|    ( ): Harmonic's
|------------------------|
|------------------------|
|-1-0--------1-0---------|

Riff 3:
|--------------|
|--------------|
|--------------|
|--------------|
|-2--8--6-5-4--|
|-2--8--6-5-4--|
|-0--6--4-3-2--|

Riff 4:
|-----------------|
|-----------------|
|-----------------|
|-----------------|    /: Slide
|-222-2/3-2/3-22--|
|-222-2/3-2/3-22--|
|-000-0/1-0/1-00--|

Figure out the order of the riff's yourself.
There you have it Enjoy!

KoRn Rules!!!!!!!!!!!
Comments