Korn - Good God Chords & Tabs

 

Good God Chords & Tabs

Korn Chords & Tabs

Version: 4 Type: Tab 0 ratings
1 star 2 stars 3 stars 4 stars 5 stars
comments

Good God Tab

7-string guitar a step down (DAFCGDA)

*=play harmonic
.=stop note

INTRO
  once        || repeat
D|---19-----19||---------19-----19-|
A|------------||-------------------|
F|------------||-------------------|
C|------------||-------------------|
G|3-----------||-3---3-------------|
D|3-----------||-3---3-------------|
A|1-0---0-0---||-1-0-1-0----0-0----|

VERSE
  repeat
D|----5*-7*-----7*--------5*-7*-----7*------| Remember the harmonic might not
A|-----------------7*------------------7*---| be in exactly the same place on
F|----------------------------------------7*| all guitars so you may have to
C|------------------------------------------| look for it but they should be
G|3---------3---------3---------3-----------| very close to the 5th and 7th
D|3---------3---------3---------3-----------| frets
A|1-0-------1-0-------1-0-------1-0---------|

PRECHORUS (would u get the fuck outta my face...)
same as INTRO
[ Tab from: http://www.guitartabs.cc/tabs/k/korn/good_god_tab_ver_4.html ]
CHORUS
  the sea of life... into my mind
D|---------------|  |------------------|
A|---------------|  |------------------|
F|---------------|  |------------------|
C|---------------|  |------------------|
G|3--7--6--7--8--|  |---8--7--6--5-4-3-|
D|3--7--6--7--8--|  |---8--7--6--5-4-3-|
A|1--5--4--5--6--|  |0--6--5--4--3-2-1-|

  the last part
D|----------------|
A|----------------|
F|----------------|
C|----------------|
G|---8--7--6--5-4-| After you play the last note palm mute it to make it fade
D|---8--7--6--5-4-| faster
A|0--6--5--4--3-2-|

BRIDGE
  once  repeat
D|----||------------------|
A|----||------------------|
F|----||------------------|
C|----||------------------|
G|3---||----------3---3---|
D|3---||----------3---3---|
A|1-0.||-0-0.-0-0-1-0-1-0.|

finish the final chorus like this:
D|---------|
A|---------|
F|---------|
C|---------|
G|---8--7--|
D|---8--7--|
A|0--6--5--| like before, palm mute the last note
Comments