Korn - Good God Chords & Tabs

 

Korn Chords & Tabs

Version: 1 Type: Tab 0 ratings
1 star 2 stars 3 stars 4 stars 5 stars
comments

Good God Tab

Yo here are the tabs for good god…. I
Know that some of it isn’t right but it 
Sounds like it and I think it will get 
Someone started with it.

Intro/Chorus
---------------------------------------
---------------------------------------
---------5-----------------5---5-------
3---2----x----3---3---2----x---x-------
3---2----3----3---3---2----3---3-------
3---2---------3---3---2----------------
Verse

---------------------------------------
----------5---4-------------4----------
----------------------------------4----
3---2-------------3---2----------------
3---2-------------3---2----------------
3---2-------------3---2----------------

Post verse

---------------------------------------
----------5---4-------------4----------
--------------------------------4------
3---2-------------3---2-------------5--
3---2-------------3---2----------------
3---2-------------3---2----------------

Post chorus

---------------------------------------
---------------------------------------
---------------------------------------
3---3----4-----1---1----6--------------
3---3----4-----1---1----6--------------
3---3----4-----1---1----6--------------
[ Tab from: http://www.guitartabs.cc/tabs/k/korn/good_god_tab.html ]
After the post chorus u can barely
Hear something that has a flanger
Sound, well I think this is it.

----5---6---8---10---------------------
---------------------------------------
---------------------------------------
---------------------------------------
---------------------------------------
---------------------------------------

Bridge 1

---------------------------------------
---------------------------------------
---------------------------------------
4---4----6---3---3---2---1-------------
4---4----6---3---3---2---1-------------
4---4----6---3---3---2---1-------------

Bridge 2 

----------------------------------------
----------------------------------------
----------------------------------------
3---2---2---2---2-----------------------
3---2---2---2---2-----------------------
3---2---2---2---2-----------------------

Order:
Intro/chorus x8
Verse x6
Post verse x1
Chorus x4
Post chorus x4
Flanger thing x1 (play last time 
Playing the post chorus)
Verse x5
Post verse x1
Bridge 1 x4
Bridge 2 x7
Post chorus x4
Flanger thing x1
Bridge 1 x4

Well that’s it. The tuning is
Normal. If ya have ?’s or
Problems, then e-mail my 
Bored ass at jpk88jpk@
Aol.com 
 
Comments