Korn - Good God Chords & Tabs

 

Good God Chords & Tabs

Korn Chords & Tabs

Version: 1 Type: Bass Tab 0 ratings
1 star 2 stars 3 stars 4 stars 5 stars
comments

Good God Bass Tab

   
Here is the tab for KoRn "Good god" off of Life is peachy". Please post it.
                            KoRn "Good God"
                Tabbed by Scott Huber
Lowend9754@aol.com
for more tab
e-mail me
and i'll post it. Note: All hammer-ons are actually ties
not hammerons.
So add the two note lengths together. The whole song is slapped except for the chorus, with is played with your fingers.


        e  e  e  s  s s  s  s  s  e  e     e  e  e  s  s s  s  s  s     
F---------------------------------------|--------r----------------------
C---4:----------------------------------|--------e----------------------
G---4:----------------------------------|--------s----------------------
D---------------------------------------|--------t----------------------
A-------1--0--0--0--0h0--1--1--1--1--0--|--1--0-----0--0h0--1--1--1-----
                                                                        

    s  s  e     e  e  e  s  s s  s  s  s  s  s  e     e  e  e  s s      
F------------|--------r----------------------------|--------------------
C------------|--------e----------------------------|--------------------
G------------|--------s----------------------------|--------------------
D------------|--------t----------------------------|--------------------
A---1--1--0--|--1--0-----0--0h0--1--1--1--1--1--0--|--1--0--0--0h0------
                                                                        

    s  e  e  e     e  e  e  s  s s  s  s  s  e  e     e  e  e  s  s     
F---------------|----------------------------------|--------r-----------
C---------------|----------------------------------|--------e-----------
G---------------|----------------------------------|--------s-----------
D---2--2--3--3--|----------------------------------|--------t-----------
A---------------|--1--0--0--0--0h0--1--1--1--1--0--|--1--0-----0--0-----
                                                                        

     s  s  s  s  e  e     e  e  e  s  s s  s  s  s  s  s  e     e  e    
F----------------------|--------r----------------------------|----------
C----------------------|--------e----------------------------|----------
G----------------------|--------s----------------------------|----------
D----------------------|--------t----------------------------|----------
A---h0--1--1--1--1--0--|--1--0-----0--0h0--1--1--1--1--1--0--|--1--0----
                                                                        

    e  s  s  s  s  e  e  e     e  e  e  s  s  s  s  e  e  e     e  e    
F---r-----------------------|--------r-----------------------|----------
C---e-----------------------|--------e-----------------------|----------
G---s-----------------------|--------s-----------------------|----------
D---t-----------------------|--------t-----------------------|----------
A------0--0--0--0--1--1--1--|--1--0-----2--2--2--2--3--4--3--|--1--0----
                                                                        

    q  e  s  s  e  e     e  e  e  s  s s  s  e  e  e     e  e  e  s     
F---r--r--------------|--------r----------------------|-----------------
C---e--e--------------|--------e----------------------|-----------------
G---s--s--------------|--------s----------------------|-----------------
D---t--t--------------|--------t----------------------|-----------------
A---------2--2--3--2--|--1--0-----0--0h0--0--2--3--2--|--1--0--1--1-----
                                                                        

    s s  e  e  e      Verse 1&2   e  e  e  s  s  s  e  e  e     e  e    
F-----------------||-----------------------------r-----------|----------
C-----------------||-----------------------------e-----------|----------
G-----------------||-----------------------------s-----------|----------
D-----------------||-----------------------------t-----------|----------
A---2h2--2--1--1--||--------------1--0--2--2--3-----4--3--2--|--1--0----
                                                                        

    e  s  s s  s  e  e  e     e  e  e  s  s s  s  e  e  e     e  e      
F--------------------------|-------------------------------|------------
C--------------------------|-------------------------------|------------
G--------------------------|-------------------------------|------------
D--------------------------|-------------------------------|------------
A---2--2--3h3--3--4--3--2--|--1--0--0--2--3h3--3--3--2--2--|--1--0------
                                                                        

    s  s  s  s s  s  s  s  e  s     e  e  s  s  s  s s  s  s  s  e      
F--------------------------------|--------------------------------------
C--------------------------------|--------------------------------------
G--------------------------------|--------------------------------------
D--------------------------------|--------------------------------------
A---0--0--2--3h3--3--3--2--2--2--|--1--0--2--2--2--3h3--3--3--3--2------
                                                                        

    e     e  e  e  s  e  e  e  e     e  e  s  s  s  s s  s  e  e  e     
F------|--------r-----------------|-------------------------------------
C------|--------e-----------------|-------------------------------------
G------|--------s-----------------|-------------------------------------
D------|--------t-----------------|-------------------------------------
A---2--|--1--0-----0--0--2--3--4--|--1--0--2--2--2--3h3--3--3--2--2-----
                                                                        

       e  e  e  e  e  e  e  e      pre-chorus        e  e  e  s  s      
F---|-----------------------r--||--------------------------r------------
C---|-----------------------e--||--------------------------e------------
G---|-----------------------s--||--------------------------s------------
D---|-----------------------t--||--------------------------t------------
A---|--1--0--0--2--3--3--2-----||--------------------1--0-----0--0------
                                                                        

     s  s  s  e  e     e  e  e  s  s        e  e  e     e  e  e  s      
F-------------------|--------r-----------------------|--------r---------
C-------------------|--------e-----------------------|--------e---------
G-------------------|--------s-----------------------|--------s---------
D-------------------|--------t-----------------------|--------t---------
A---h0--0--0--1--0--|--1--0-----0--0--x--x--1--1--0--|--1--0-----0------

                                                                        

    s s  s  e e  e    e  e  e  s  s s  s  e  e  e      chorus 1    e    
F------------------|--------r----------------------||-------------------
C------------------|--------e----------------------||-------------------
G------------------|--------s----------------------||-------------------
D------------------|--------t----------------------||--------------7----
A---0h0--0--0/8--7\|--1--0-----0--0h0--0--4--5--6--||-------------------
                                                                        

    s  s  s  e  e  s  e  s     q  e  E  e  s  s  s  s     E  s  s  e    
F------------------------r--|--------------------------|----------------
C------------------------e--|--------------------------|----------------
G------------------------s--|--------------------------|----------------
D---7--7--7--------------t--|--------5--5--5--4--4-----|--7--7--7-------
A------------6--6--6--6-----|--4--4-----------------0--|-----------6----
                                                                        

    e  e  e  e     e  s  e  e  e  e  s  e  s     e  s  s  s  e  e  e    
F---------------|-----------------------------|-------------------------
C---------------|-----------------------------|-------------------------
G---------------|-----------------------------|-------------------------
D---------------|-----------5--5--5--4-----5--|--7--7--7--7-------------
A---6--6--6--6--|--4--4--4--------------4-----|--------------6--6--6----
                                                                        
[ Tab from: http://www.guitartabs.cc/tabs/k/korn/good_god_btab.html ]
    e  e     e  s  e  e  e  e  s  s  e     e  s  s  s  e  e  e  e  e    
F---------|-----------------------------|-------------------------------
C---------|-----------------------------|-------------------------------
G---------|-----------------------------|-------------------------------
D---------|-----------5--5-----4--4-----|--7--7--7--7-------------------
A---6--6--|--4--4--4--------4--------4--|--------------6--6--6--6--6----
                                                                        

       e  s  e  e  e  e  e  e     e  e  s  s  s  e  s  s  s  e  e       
F---|--------------------------|-----------r-----------------------|----
C---|--------------------------|-----------e-----------------------|----
G---|--------------------------|-----------s-----------------------|----
D---|-----------5--5--5--4--4--|-----------t-----------------------|----
A---|--4--4--4-----------------|--1--0--0-----0--0--0--2--2--3--2--|----
                                                                        

    e  e  q  e  s  s  e  e     e  e  e  e  s  e  e  e     e  e  e  s    
F---------r--r--------------|--------r-----------------|--------r-------
C---------e--e--------------|--------e-----------------|--------e-------
G---------s--s--------------|--------s-----------------|--------s-------
D---------t--t--------------|--------t-----------------|--------t-------
A---1--0--------3--3--2--3--|--1--0-----0--0--0--3--2--|--1--0-----2----
                                                                        

    e  s  s  s  s  s  s  s      Repeat verse and Prechorus              
F---------------------------||------------------------------------------
C---------------------------||------------------------------------------
G---------------------------||------------------------------------------
D---------------------------||------------------------------------------
A---3--3--5--5--3--3--2--1--||------------------------------------------
                                                                        

        Chorus 2    E  s  s  s  q  e  s  e  s     q  e  E  e  s  s      
F---||--------------------------------------r--|------------------------
C---||--------------------------------------e--|------------------------
G---||--------------------------------------s--|------------------------
D---||--------------7--7--7--7--------------t--|--------5--5--5--4------
A---||--------------------------6--6--6--6-----|--4--4------------------
                                                                        

    s  e     e  s  s  s  e  e  e  e  e     e  s  e  e  e  s  e  s       
F---------|-----------------------------|--------------------------|----
C---------|-----------------------------|--------------------------|----
G---------|-----------------------------|--------------------------|----
D---4-----|--7--7--7--7-----------------|-----------5--5--4-----4--|----
A------5--|--------------6--6--6--6--6--|--4--4--4-----------4-----|----
                                                                        

    e  s  s  s  e  e  e  e  e     e  s  e  e  e  s  s  s  e     e  s    
F------------------------------|-----------------------------|----------
C------------------------------|-----------------------------|----------
G------------------------------|-----------------------------|----------
D---7--7--7--7-----------------|-----------5--5-----4--4-----|--7--7----
A---------------6--6--6--6--6--|--4--4--4--------4--------4--|----------
                                                                        

    s  s  e  e  e  e  e     e  s  e  e  q  q       Bridge   e  s  e     
F------------------------|--------------------||------------------------
C------------------------|--------------------||------------------------
G------------------------|--------------------||*-----------------------
D---7--7-----------------|-----------5--5-----||*-----------------------
A---------6--6--6--6--6--|--4--4--6--------3--||------------0--0--0-----
                                                                        

    e  e  e  e  e     e  s  e  q  e  e  e   4x                          
F------------------|------------------------||--------------------------
C------------------|------------------------||--------------------------
G------------------|-----------------------*||--------------------------
D------------------|-----------------------*||--------------------------
A---6--6--6--6--6--|--4--4--4--3--2--2--1---||--------------------------
                                                                        

    Bass solo "Won't you get the....."                e  e  e  s  s     
F------------------------------------------------||---------r-----------
C------------------------------------------------||---------e-----------
G------------------------------------------------||*--------s-----------
D------------------------------------------------||*--------t-----------
A------------------------------------------------||---1--0-----0--0-----
                                                                        

    s  s  e  e  e   5x  e  e  e  e  e  e  q       e  e  e  s  s  s      
F---r---------------||-----------------r--r--||---------r--------r------
C---e---------------||-----------------e--e--||---------e--------e------
G---s--------------*||-----------------s--s--||*--------s--------s------
D---t--------------*||-----------------t--t--||*--------t--------t------
A------0--0--1--0---||--1--0--0--0--0--------||---1--0-----0--0---------
                                                                        

    s  e  e  e     e  e  e  s  s  s  s  e  e  e   4x                    
F---------------|--------r--------r---------------||--------------------
C---------------|--------e--------e---------------||--------------------
G---------------|--------s--------s--------------*||--------------------
D---------------|--------t--------t--------------*||--------------------
A---0--0--1--0--|--1--0-----0--0-----0--0--1--0---||--------------------
                                                                        

    Repeat chorus 2           Bridge   e  s  e  e  e  e  e  e     e     
F------------------------||------------------------------------|--------
C------------------------||------------------------------------|--------
G------------------------||*-----------------------------------|--------
D------------------------||*-----------------------------------|--------
A------------------------||------------0--0--0--6--6--6--6--6--|--4-----
                                                                        

    s  e  q  e  e  e   3x  q  e  q  q  e     h e e  q                   
F----------------------||-----------------|---------r--||---------------
C----------------------||-----------------|---------e--||---------------
G---------------------*||-----------------|---------s--||---------------
D---------------------*||-----------------|---------t--||---------------
A---4--4--3--2--2--1---||--0--0--6--6--0--|--4\3\2-----||---------------
                                                                        



========================================================================
==                       TABLATURE EXPLANATION                        ==
========================================================================

----------                ----------                ----t---
----5h8--- Hammeron       ----(8)--- Ghost          ----6--- Tap
----------                ---------- Note           --------
----5p8--- Pulloff        ----------                --------

----------                ----------                -----p--
----5/8--- Slide Up       -----x---- Dead           -----7-- Pop
----------                ---------- Note           --s-----
----5\8--- Slide Down     ----------                --5----- Slap 

----------                ||------|| Repeat         --------
----5~~~-- Vibrato        ||*----*||                ---5^--- Bend
----------                ||*----*||                --------
----------                ||------||                --------

----------                ----------                --------
-4:------- Time           ----------                --------
-4:------- Signature      ----------                --------
----------                ----------                --------

Rhythm:
  w = whole note            W = dotted whole
  h = half note             H = dotted half
  q = quarter note          Q = dotted quarter
  e = eighth note           E = dotted eighth
  s = sixteenth note        S = dotted sixteenth
  t = 32nd note             T = dotted 32nd
  x = 64th note             X = dotted 64th
  ^ = triplet

========================================================================
==            Created with a demo version of BUCKET O' TAB            ==
==              tablature creation software for Windows               ==
==                  For more info email gse@his.com                   ==
========================================================================

Comments