Korn - Freak On A Leash Chords & Tabs

 

Freak On A Leash Chords & Tabs

Korn Chords & Tabs

Version: 7 Type: Tab 1 rating
1 star 2 stars 3 stars 4 stars 5 stars
comments

Freak On A Leash Tab

			        "FREAK ON A LEASH"
				        by
				       KoRn
				  as tabbed by JN

INTRO/VERSE (this has 2 guitars going if you listen but this is good if you only have one person playing)
x|---12-10~---8pulloff-9pulloff-|
x|-9~---------------------------|
x|------------------------------|
x|------------------------------|
x|------------------------------|
x|------------------------------|
[ Tab from: http://www.guitartabs.cc/tabs/k/korn/freak_on_a_leash_tab_ver_7.html ]
PRE-CHORUS
x|----------------------|
x|----------------------|
x|----------------------|
x|----------------------|
x|-5-7-5-7----5-7-5-7-3-|
x|-5-7-5-7----5-7-5-7-3-|

CHORES
x|---------------------------|
x|---------------------------|
x|---------------------------|
x|---------------------------|
x|-5-5---5-5555--6-8---------|
x|-5-5---5-5555-------7-9--6-|

INTERLUDE
x|-8--10-10-10-10--10-10--11-10-9-|-----------|
x|--------------------------------|-----------|
x|--------------------------------|-----------|
x|--------------------------------|-----------|
x|--------------------------------|-5--7-9-10-|
x|--------------------------------|-5--7-9-10-|
Comments