Korn - Freak On A Leash Chords & Tabs

 

Freak On A Leash Chords & Tabs

Korn Chords & Tabs

Version: 6 Type: Tab 0 ratings
1 star 2 stars 3 stars 4 stars 5 stars
comments

Freak On A Leash Tab

   
Artist: Korn
Album: Follow The Leader
Song: Freak On A Leash
Tuning: EADGBE
Transcribed By: Steve Hines
[ Tab from: http://www.guitartabs.cc/tabs/k/korn/freak_on_a_leash_tab_ver_6.html ]
Intro/Verse: x12
E---7---0-3-0-
B-5---6-------
G-------------
D-------------
A-------------
E-------------
Pre-Chorus: x3
E------------------------
B------------------------
G------------------------
D-2-3-2-0-4-------0-4-5--
A-2-3-2---5-2-3-2---5-6--
E------------------------
Pre-Chorus: x1
E-----------
B-----------
G-----------
D-2-3-2-0-4-
A-2-3-2---5-
E-----------
Chorus: x4
E---------------------------
B---------------------------
G---------------------------
D---------------------------
A-2-2-2-2-2-2-2-2-4-4-5-3-3-
E-0-0-0-0-0-0-0-0-2-2-3-1-1-
Intro/Verse: x4
E---7---0-3-0-
B-5---6-------
G-------------
D-------------
A-------------
E-------------
Pre-Chorus: x3
E------------------------
B------------------------
G------------------------
D-2-3-2-0-4-------0-4-5--
A-2-3-2---5-2-3-2---5-6--
E------------------------
Pre-Chorus: x1
E-----------
B-----------
G-----------
D-2-3-2-0-4-
A-2-3-2---5-
E-----------
Chorus: x4
E---------------------------
B---------------------------
G---------------------------
D---------------------------
A-2-2-2-2-2-2-2-2-4-4-5-3-3-
E-0-0-0-0-0-0-0-0-2-2-3-1-1-
Interlude: x4
E-----8-8-----8-8-7-8-7-----8-8-----8-8-8-8-
B-------------------------------------------
G-------------------------------------------
D-------------------------------------------
A-------------------------------------------
E-7-7-----7-7-----------7-7-----7-7---------
Interlude: x3
E---------
B---------
G---------
D---------
A-4-5-6-7-
E-2-3-4-5-
Interlude: x1
E---------
B---------
G---------
D---------
A-4-5-4-3-
E-2-3-2-1-
Interlude: x3
E---------
B---------
G---------
D---------
A-4-5-6-7-
E-2-3-4-5-
Interlude: x1
E---------
B---------
G---------
D---------
A-4-5-4-3-
E-2-3-2-1-
Interlude: x3
E---------
B---------
G---------
D---------
A-4-5-6-7-
E-2-3-4-5-
Interlude: x1
E---------
B---------
G---------
D---------
A-4-5-4-3-
E-2-3-2-1-
Chorus: x8
E---------------------------
B---------------------------
G---------------------------
D---------------------------
A-2-2-2-2-2-2-2-2-4-4-5-3-3-
E-0-0-0-0-0-0-0-0-2-2-3-1-1-

This is as close as I could get, there's still some parts I'm not sure about.
Any questions or comments email me at steve_likes_korn@hotmail.com.



Comments