Korn - Freak On A Leash Chords & Tabs

 

Freak On A Leash Chords & Tabs

Korn Chords & Tabs

Version: 5 Type: Tab 1 rating
1 star 2 stars 3 stars 4 stars 5 stars
comments

Freak On A Leash Tab

   
korn uses two seven string guitars down a step but you can still play them.

Tuning(low to high): d-a-d-g-b-e
h=hammer on  p=pull of
intro/verse

10-------------------
----10-------------10
--------8------8-----
---------------------
---------------------
---------------------


pre-chorus
------------------------------
------------------------------
------------------------------
--4h5p4---0---4--4-4h5p4--0--1
------------------------------
------------------------------

[ Tab from: http://www.guitartabs.cc/tabs/k/korn/freak_on_a_leash_tab_ver_5.html ]
chorus
---------------------------------------------------
---------------------------------------------------
--2-2---2--2-2--2-2-----3-3-3----------------------
--2-2---2--2-2--2-2-----2-2-2-----1-1---1--1-1--1-1
--0-0---0--0-0--0-0-----1-1-1-----1-1---1--1-1--1-1
----------------------------------1-1---1--1-1--1-1

bridge(after it goes quiet for a couple seconds)
-----------------------------------------------------------
-----------------------------------------------------------
-----------------------------------------------------------
9---10--11--12--9---10--11--12--9---10--11--12--9--10-9--7-
9---10--11--12--9---10--11--12--9---10--11--12--9--10-9--7-
9---10--11--12--9---10--11--12--9---10--11--12--9--10-9--7-
Comments